Shawn James

Snake Eyes

Shawn James

tabs nolevel nolevel

by  SABRJOAO

save to print version add songbook text version e-mail correct tuner
chordsukulelecavacokeyboardtabbassdrumsharmonicaflute Guitar Pro
close

there isn't a video lesson for this song

chords

Snake Eyes

	  		Intro: 

E|------------------------------------------| 
B|------------------------------------------| 
G|-------0-2/4/2p0--------0-----------------| 
D|---0h2-----------2--0h2-------------------| 
A|-0----------------------------------------| 
E|------------------------------------------| 

E|------------------------------------------| 
B|------------------------------------------| 
G|-------0-2/4/2p0--------------------------| 
D|---0h2-----------2--0h2-------------------| 
A|-0----------------------------------------| 
E|------------------------3-----------------| 

E|------------------------------------------| 
B|------------------------------------------| 
G|-------0-2/4/2p0--------0-----------------| (2x) 
D|---0h2-----------2--0h2-------------------| 
A|-0----------------------------------------| 
E|------------------------------------------| 

Primeira estrofe: 

Watch your step lest you move on death 
E|------------------------------------------| 
B|------------------------------------------| 
G|-------0-2/4/2p0--------0-----------------| 
D|---0h2-----------2--0h2-------------------| 
A|-0----------------------------------------| 
E|------------------------------------------| 

Refrão: 

Snake eyes always on my tail 
E|------------------------------------------| 
B|------------------------------------------| 
G|-------0-2/4/2p0--------0-----------------| 
D|---0h2-----------2--0h2-------------------| 
A|-0----------------------------------------| 
E|------------------------------------------| 

Segunda Estrofe: 

E|------------------------------------------| 
B|------------------------------------------| 
G|----------0-2/4/2p0--------------0-0~--0~-| (2x) 
D|------0h2-----------2--------0h2----------| 
A|-0--0-------------------0--0--------------| 
E|----------------------3-------------------| 

Blow out your candles and face the gloom 
E|------------------------------------------| 
B|------------------------------------------| 
G|----------0-2/4/2p0--------------0-0~--0~-| 
D|------0h2-----------2--------0h2----------| 
A|-0--0-------------------0--0--------------| 
E|----------------------3-------------------| 

Segundo Refrão: 

Variação: 

Snake eyes always on my tail 
E|------------------------------------------| 
B|------------------------------------------| 
G|----------0-2/4/2p0--------------0-0~--0~-| 
D|------0h2-----------2--------0h2----------| 
A|-0--0-------------------0--0--------------| 
E|----------------------3-------------------| 

Snake eyes always up ahead... 
E|------------------------------------------| 
B|------------------------------------------| 
G|----------0-2/4/2p0-----------------------| 
D|------0h2-----------2---------------------| 
A|-0--0-------------------------------------| 
E|----------------------3-------------------| 

E|------------------------------------------| 
B|------------------------------------------| 
G|-------0-2/4/2p0--------0-----------------| 
D|---0h2-----------2--0h2-------------------| 
A|-0----------------------------------------| 
E|------------------------------------------| 

Ponte: 

E|------------------------------------------| 
B|------------------------------------------| 
G|----------0-2/4/2p0-----------------------| 
D|------0h2-----------2---------------------| 
A|-0--0-------------------------------------| 
E|----------------------3-------------------| 
                                              (2x) 
 
E|------------------------------------------| 
B|------------------------------------------| 
G|-------0-2/4/2p0--------0-----------------| 
D|---0h2-----------2--0h2-------------------| 
A|-0----------------------------------------| 
E|------------------------------------------| 

Repetição do segundo refrão 

Final: 

E|------------------------------------------| 
B|------------------------------------------| 
G|----------0-2/4/2p0-----------------------| 
D|------0h2-----------2---------------------| 
A|-0--0-------------------------------------| 
E|----------------------3-------------------| 
                                              (2x) 
 
E|------------------------------------------| 
B|------------------------------------------| 
G|-------0-2/4/2p0--------0-----------------| 
D|---0h2-----------2--0h2-------------------| 
A|-0----------------------------------------| 
E|------------------------------------------| 
		  

See also:

tabs Deep Purple - Sometimes a Feel Like Screaming tabs Deep Purple - Mistreated tabs Deep Purple - Smoke on the Water (ver. 2) tabs Ira! - Vitrine Viva tabs Doa - Sexyest Girl tabs Deep Purple - Ted The Mechanic
e-chords

Other versions:

tabs Mumford And Sons - Snake Eyes tabs Axel Rudi Pell - Snake Eyes tabs Shawn James - Snake Eyes
auto scroll beats size up size down change color hide chords drawings
tab show chords e-chords YouTube Clip e-chords hide all tabs e-chords go to top tab

share with facebook