Shark Attack

Questionamentos Pessoais

Shark Attack

tabs

by  HEBEALMEIDA

save to print version add songbook text version e-mail correct tuner
chordsukulelecavacokeyboardtabbassdrumsharmonicaflute Guitar Pro
close

there isn't a video lesson for this song

chords

Questionamentos Pessoais

	  		Intro: 

 
    D#5        C#5        B5        A#5 
E|-------------------------------------------------------| 
B|-------------------------------------------------------| 
G|--8--8/10/8--6--6/8/6--4--4/6/4--3--3--3-3-3-3-3-3-----| 
D|--8----------6---------4---------3--3--3-3-3-3-3-3-----| 
A|--6--6/8-/6--4--4/6/4--2--2/4/2--1--1--1-1-1-1-1-1-----| 
E|-------------------------------------------------------| 
 

 
    D#5        C#5        B5        A#5 
E|-----------------------------------------------------------------------------------| 
B|-----------------------------------------------------------------------------------| 
G|--8-8-8-8-8-8-8/10/8--6-6-6-6-6-6--6/8/6--4-4-4-4-4-4-4/6/4--3--3--3-3-3-3-3-3-----| 
D|--8-8-8-8-8-8---------6-6-6-6-6-6---------4-4-4-4-4-4--------3--3--3-3-3-3-3-3-----| 
A|--6-6-6-6-6-6-6/8-/6--4-4-4-4-4-4--4/6/4--2-2-2-2-2-2-2/4/2--1--1--1-1-1-1-1-1-----| 
E|-----------------------------------------------------------------------------------| 
 

Verso: 

 
     A5                           C5 D5 C5 B5 C5 B5 
E|-----------------------------------------------------| 
B|-----------------------------------------------------| 
G|--2-2-2-2-2-2-2-2-2-2-2-2-------5/7--5--4/5/4--------| 
D|--2-2-2-2-2-2-2-2-2-2-2-2-------5/7--5--4/5/4--------| 
A|--0-0-0-0-0-0-0-0-0-0-0-0--3p0--3/5--3--2/3/2--------| 
E|-----------------------------------------------------| 
 

Se queremos mudar, comece por você 
Autoconfiança, pra derrubar o poder. 

Pré Refrão 

 
    A5 
E|---------------------------------------------------------| 
B|---------------------------------------------------------| 
G|--22-x2-22-x2-22-x2-22-x2-----------------------------2--| 
D|--22-x2-22-x2-22-x2-22-x2-----------------------------2--| 
A|--00-x0-00-x0-00-x0-00-x0--2p0-3p0-5p0-3p0-2p0-2h3p2--0--| 
E|---------------------------------------------------------| 
 

G5                 A5              F5         G5 
 Como vou vencer a guerra se desconheço o inimigo 
                 A5           A#5           G5 
Destruir fronteiras e assim fazer algum sentido 
                  A5        F5         G5 
Exile o preconceito que a cidade te excita 
                    A5              A#5 
Estar em paz é uma virtude pra quem vivencia 

 
    D#5        C#5        B5        A#5 
E|-----------------------------------------------------------------------------------| 
B|-----------------------------------------------------------------------------------| 
G|--8-8-8-8-8-8-8/10/8--6-6-6-6-6-6--6/8/6--4-4-4-4-4-4-4/6/4--3--3--3-3-3-3-3-3-----| 
D|--8-8-8-8-8-8---------6-6-6-6-6-6---------4-4-4-4-4-4--------3--3--3-3-3-3-3-3-----| 
A|--6-6-6-6-6-6-6/8-/6--4-4-4-4-4-4--4/6/4--2-2-2-2-2-2-2/4/2--1--1--1-1-1-1-1-1-----| 
E|-----------------------------------------------------------------------------------| 
 

Uooooooo  Ooooooooo  OoooooOooo 2x 

 
     A5                           C5 D5 C5 B5 C5 B5 
E|-----------------------------------------------------| 
B|-----------------------------------------------------| 
G|--2-2-2-2-2-2-2-2-2-2-2-2-------5/7--5--4/5/4--------| 
D|--2-2-2-2-2-2-2-2-2-2-2-2-------5/7--5--4/5/4--------| 
A|--0-0-0-0-0-0-0-0-0-0-0-0--3p0--3/5--3--2/3/2--------| 
E|-----------------------------------------------------| 
 


Matar ou morrer? Lutar ou correr? 
Ser o heroi? , seja o heroi. 

 
    A5 
E|---------------------------------------------------------| 
B|---------------------------------------------------------| 
G|--22-x2-22-x2-22-x2-22-x2-----------------------------2--| 
D|--22-x2-22-x2-22-x2-22-x2-----------------------------2--| 
A|--00-x0-00-x0-00-x0-00-x0--2p0-3p0-5p0-3p0-2p0-2h3p2--0--| 
E|---------------------------------------------------------| 
 

G5                        A5             F5 
 Boas histórias se contam pra quem pode interpretar 
G5                       A5         A#5 
 Tudo se vai num segundo senão se preparar 
G5                A5               F5 
 Vida simples e pacata quem é que pode ter 
G5                       A5      A#5 
 Sonhar é bom, mas custa caro em SP. 

 
    D#5        C#5        B5        A#5 
E|-----------------------------------------------------------------------------------| 
B|-----------------------------------------------------------------------------------| 
G|--8-8-8-8-8-8-8/10/8--6-6-6-6-6-6--6/8/6--4-4-4-4-4-4-4/6/4--3--3--3-3-3-3-3-3-----| 
D|--8-8-8-8-8-8---------6-6-6-6-6-6---------4-4-4-4-4-4--------3--3--3-3-3-3-3-3-----| 
A|--6-6-6-6-6-6-6/8-/6--4-4-4-4-4-4--4/6/4--2-2-2-2-2-2-2/4/2--1--1--1-1-1-1-1-1-----| 
E|-----------------------------------------------------------------------------------| 
 

Uooooooo  Ooooooooo  OoooooOooo 2x 

Questionamentos pessoais, ooooooh 
Questionamentos pessoais, ooooooh 

Final: E5 E5 E5 
		  

Full key step upFull key step up
Half key step upHalf key step up
Half key step downHalf key step down
Full key step downFull key step down
auto scroll beats size up size down change color hide chords drawings
tab show chords e-chords YouTube Clip e-chords hide all tabs e-chords go to top tab

share