Shaman

Turn Away

Shaman

tabs

save to print version add songbook text version e-mail correct tuner
chordsukulelecavacokeyboardtabbassdrumsharmonicaflute Guitar Pro
close

there isn't a video lesson for this song

chords

Turn Away

	  		Obs.: Ai gente, por enquanto só peguei a intro e os versos iniciais... 
Não consegui pegar a ponte e nem o refrao... mas quem for conseguindo 
mais pedaços, vai corrigindo a minha versão e botando o seu também! 
  
 
{Afinação padrão} 
 
INTRO 
  |--------------------------------------| 
  |--------------------------------------| 
  |--------------------------------------| 
  |-2-2----------------------------------| 
  |-2-2----------------------------------| 
  |-0-0-0-0-0-0-0-0-0-0-0-0-0-0-0-0------| 
 
  |--------------------------------------| 
  |--------------------------------------| 
  |-----------5-5--3-2-------------------| 
  |-4-4--6-6--5-5--3-2-------------------| 
  |-4-4--6-6--3-3--1-0-------------------| 
  |-2-2--4-4-----------------------------| 
 
Versos 
 
  |--------------------------------------| 
  |--------------------------------------| 
  |--------------------------------------| 
  |-2-2------2-----2-------2-2-3/--------| 
  |-2-2------2-----2-------2-2-3/--------| 
  |-0-0-0-0--0-0-0-0-0-0-0-0-0-1/--------| 
 
  |--------------------------------------| 
  |--------------------------------------| 
  |--------------------------------------| 
  |-2-2------2-----2-------2-2-5/--------| 
  |-2-2------2-----2-------2-2-5/--------| 
  |-0-0-0-0--0-0-0-0-0-0-0-0-0-3/--------|   
  
  |--------------------------------------| 
  |--------------------------------------| 
  |-----------5-5--3-2-------------------| 
  |-4-4--6-6--5-5--3-2-------------------| 
  |-4-4--6-6--3-3--1-0-------------------| 
  |-2-2--4-4-----------------------------| 
 
 
bom, é melhor do que nada... 
 
Versão 2 
 
Intro 
 
  C|--------------------------------------| 
  G|--------------------------------------| 
 D#|--------------------------------------| 
  B|-2-2----------------------------------| 
  F|-2-2----------------------------------| 
  C|-0-0-0-0-0-0-0-0-0-0-0-0-0-0-0-0------| 
                                               
  C|--------------------------------------|   
  G|--------------------------------------| 
 D#|--------------------------------------| 
  B|--12---7--9----7-9--------------------| 
  F|--10---5--7----5-7--------------------| 
  C|--------------------------------------| 
 
  C|--------------------------------------| 
  G|--------------------------------------| 
 D#|--------------------------------------| 
  B|-2-2----------------------------------| 
  F|-2-2----------------------------------| 
  C|-0-0-0-0-0-0-0-0-0-0-0-0-0-0-0-0------| 
                                               
  C|--------------------------------------|   
  G|--------------------------------------| 
 D#|--------------------------------------| 
  B|--12---7--9----7--12--11--9-----------| 
  F|--10---5--7----5--10--9---7-----------| 
  C|--------------------------------------|   
 
 
   Verso 
 
  C|---------------------------------------------------------------------| 
  G|---------------------------------------------------------------------| 
 D#|---------------------------------------------------------------------| 
  B|-9-9-------------------------------12---11--9------------------------| 
  F|-7-7-------------------------------10---9---7------------------------| 
  C|-0-0-0-0-0-0-0-0-0-0-0-0-0-0-0-0-------------------------------------| 
 
 
  C|---------------------------------------------------------------------| 
  G|---------------------------------------------------------------------| 
 D#|---------------------------------------------------------------------| 
  B|-9-9-------------------------------9--11-12--------------------------| 
  F|-7-7-------------------------------7--9--10--------------------------| 
  C|-0-0-0-0-0-0-0-0-0-0-0-0-0-0-0-0-------------------------------------| 
 
  C|---------------------------------------------------------------------| 
  G|---------------------------Ponte-------------------------------------| 
 D#|---------------------------------------------------------------------| 
  B|----5--9--5--7--9----------4--2---4--2-------------------------------| 
  F|-5--3--7--3--5--7----------2--0---2--0-------------------------------| 
  C|-3-------------------------------------------------------------------| 
 
Riff 
 
  C|---------------------------------------------------------------------| 
  G|---------------------------------------------------------------------| 
 D#|---------------------------------------------------------------------| 
  B|---------------------------------------------------------------------|2x 
  F|---------------------------------------------------------------------| 
  C|-0-0-0-3p-0-0-0-5p-0-0-0-0-0-8-7 -0-0-3p-0-0-0-5p-0-0-0-0-0--1-0-----| 
  
Refrão 
 
  C|-------------------------------------------------------------------------| 
  G|----------------------------------------------------------------2 parte--| 
 D#|------------------------5-5-5-5-5--------------------------------12-11-9-| 
  B|--2-2-2-2-2-2-5-5-5-5-5-5-5-5-5-5-9-9-9-9-9-2x----------2-4-2------------| 
  F|--2-2-2-2-2-2-5-5-5-5-5-3-3-3-3-3-7-7-7-7-7---------2-4----------10-9-7--| 
  C|--0-0-0-0-0-0-3-3-3-3-3-------------------------3-5----------------------| 
 
Solo 
 
  C|------------------------------------------------------------------------------| 
  G|-------------10s12-------------------------------------15^-12-----------------| 
 D#|--9~-9--9-11--------11-9--------11-9--------------------------14-12-----------| 
  B|-------------------------10-10~-----10-9~--9h10-9-------------------14-12-----| 
  F|-------------------------------------------------------------------------14-12-14~| 
  C|-------------------------------------------------------------------------------| 
 
 
 
  C|---------------------------------------------------------------------| 
  G|----15^-12-15-12----12---------------------15^-----------------------| 
 D#|-----------------14----14-12-14--------------------------------------| 
  B|---------------------------------12-14-12----------------------------| 
  F|---------------------------------------------------------------------| 
  C|---------------------------------------------------------------------| 
 
Baixo e Batera 
 
 
  C|---------------------------------------------------------------------| 
  G|---------------------------------------------------------------------| 
 D#|---------------------------------------------------------------------| 
  B|---------------------------------------------------------------------| 
  F|---------------------------------------------------------------------| 
  C|-5p7-7-5-7-5-5p7-7-5-7-5---------------------------------------------| 
 
           

		  

auto scroll beats size up size down change color hide chords drawings
tab show chords e-chords YouTube Clip e-chords hide all tabs e-chords go to top tab

share