Shadows fall

Fire From The Sky

Shadows fall

tabs

by  VICTBORGES

save to print version add songbook text version e-mail correct tuner
chordsukulelecavacokeyboardtabbassdrumsharmonicaflute Guitar Pro
close

there isn't a video lesson for this song

chords

Fire From The Sky

	  		
Intro 1 

Guitar 1 (x3) 
D-------------------------5~~~~~~~~~~~~~~~~~~~~~~~~~~~~~~~~~~~~~~-| 
A-------------------------3~~~~~~~~~~~~~~~~~~~~~~~~~~~~~~~~~~~~~~-| 
F-7---8---7---5---7~~~\~~-2~~~~~~~~~~~~~~~~~~~~~~~~~~~~~~~~~~~~~~-| 
C-7---8---7---5---7~~~\~~-0~~~~~~~~~~~~~~~~~~~~~~~~~~~~~~~~~~~~~~-| 
G-5---6---5---3---5~~~\~~-0~~~~~~~~~~~~~~~~~~~~~~~~~~~~~~~~~~~~~~-| 
C-------------------------0~~~~~~~~~~~~~~~~~~~~~~~~~~~~~~~~~~~~~~-| 

Guitar 2 (x3) 
D-------------------------5~~~~~~~~~~~~~~~~~~~~~~~~~~~~~~~~~~~~~~-| 
A-------------------------3~~~~~~~~~~~~~~~~~~~~~~~~~~~~~~~~~~~~~~-| 
F-7---8---7---5---7~~~\~~-2~~~~~~~~~~~~~~~~~~~~~~~~~~~~~~~~~~~~~~-| 
C-x---x---x---x---x---\---0~~~~~~~~~~~~~~~~~~~~~~~~~~~~~~~~~~~~~~-| 
G-5---6---5---3---5~~~\~~-0~~~~~~~~~~~~~~~~~~~~~~~~~~~~~~~~~~~~~~-| 
C-------------------------0~~~~~~~~~~~~~~~~~~~~~~~~~~~~~~~~~~~~~~-| 

================================================================== 

Guitar 1 
D-------------------------5~~~~~~~~~~-----------------------------| 
A-------------------------3~~~~~~~~~~-----------------------------| 
F-7---8---7---5---7~~~\~~-2~~~~~~~~~~-----------------------------| 
C-7---8---7---5---7~~~\~~-0~~~~~~~~~~-3---2-----------------------| 
G-5---6---5---3---5~~~\~~-0~~~~~~~~~~-3---2-----------------------| 
C-------------------------0~~~~~~~~~~-3---2-----------------------| 

Guitar 2 
D-------------------------5~~~~~~~~~~-----------------------------| 
A-------------------------3~~~~~~~~~~-----------------------------| 
F-7---8---7---5---7~~~\~~-2~~~~~~~~~~-----------------------------| 
C-x---x---x---x---x---\---0~~~~~~~~~~-----------------------------| 
G-5---6---5---3---5~~~\~~-0~~~~~~~~~~-8-8-4-4-4-4-8-8-8-8-7-7-7-7-| 
C-------------------------0~~~~~~~~~~-----------------------------| 

================================================================== 
================================================================== 


Intro 2 

Guitar 1 (x4) 
D-------------------------5~~~~~~~~~~-----------------------------| 
A-------------------------3~~~~~~~~~~-----------------------------| 
F-7---8---7---5---7~~~\~~-2~~~~~~~~~~-----------------------------| 
C-7---8---7---5---7~~~\~~-0~~~~~~~~~~-3---2~~~~~~~~~~~~~~~~~~~~~~-| 
G-5---6---5---3---5~~~\~~-0~~~~~~~~~~-3---2~~~~~~~~~~~~~~~~~~~~~~-| 
C-------------------------0~~~~~~~~~~-3---2~~~~~~~~~~~~~~~~~~~~~~-| 

Guitar 2 (x4) 
D-------------------------5~~~~~~~~~~-----------------------------| 
A-------------------------3~~~~~~~~~~-----------------------------| 
F-7---8---7---5---7~~~\~~-2~~~~~~~~~~-----------------------------| 
C-x---x---x---x---x---\---0~~~~~~~~~~-----------------------------| 
G-5---6---5---3---5~~~\~~-0~~~~~~~~~~-8-8-4-4-4-4-8-8-8-8-7-7-7-7-| 
C-------------------------0~~~~~~~~~~-----------------------------| 

================================================================== 
================================================================== 


Intro 3 

Guitar 1 (x4) 
D-------------------------5~~~~~~~~~~-----------------------------| 
A-------------------------3~~~~~~~~~~-----------------------------| 
F-7---8---7---5---7~~~\~~-2~~~~~~~~~~-----------------------------| 
C-7---8---7---5---7~~~\~~-0~~~~~~~~~~-3---2~~~~~~-7-7-7-7-5-5-5-5-| 
G-5---6---5---3---5~~~\~~-0~~~~~~~~~~-3---2~~~~~~-----------------| 
C-------------------------0~~~~~~~~~~-3---2~~~~~~-----------------| 

Guitar 2 (x4) 
D-------------------------5~~~~~~~~~~-----------------------------| 
A-------------------------3~~~~~~~~~~-----------------------------| 
F-7---8---7---5---7~~~\~~-2~~~~~~~~~~-----------------------------| 
C-x---x---x---x---x---\---0~~~~~~~~~~-----------------------------| 
G-5---6---5---3---5~~~\~~-0~~~~~~~~~~-8-8-4-4-4-4-8-8-8-8-7-7-7-7-| 
C-------------------------0~~~~~~~~~~-----------------------------| 

================================================================== 
================================================================== 


Verse 1 

Guitar 1 & 2 
D-----------------------------------------------------------------| 
A-----------------------------------------------------------------| 
F-----------------------------------------------------------------| 
C-2---1---2---5---4~~~~~~-4~~~~~~~~~~-1---2---1---6---5---1~~~~~~-| 
G-2---1---2---5---4~~~~~~-4~~~~~~~~~~-1---2---1---6---5---1~~~~~~-| 
C-2---1---2---5---4~~~~~~-4~~~~~~~~~~-1---2---1---6---5---1~~~~~~-| 
pm.   .   .                           .   .   .   .   . 

================================================================== 

Guitar 1 & 2 
D-----------------------------------------------------------------| 
A-----------------------------------------------------------------| 
F-----------------------------------------------------------------| 
C-2---1---2---5---4~~~~~~-4~~~~~~~~~~-1---2---1---5~~~~~~~~~~~\~~-| 
G-2---1---2---5---4~~~~~~-4~~~~~~~~~~-1---2---1---5~~~~~~~~~~~\~~-| 
C-2---1---2---5---4~~~~~~-4~~~~~~~~~~-1---2---1---5~~~~~~~~~~~\~~-| 
pm.   .   .                           .   .   . 

================================================================== 

Guitar 1 & 2 
D-----------------------------------------------------------------| 
A-----------------------------------------------------------------| 
F-----------------------------------------------------------------| 
C-2---1---2---5---4~~~~~~-4~~~~~~~~~~-1---2---1---6---5---1~~~~~~-| 
G-2---1---2---5---4~~~~~~-4~~~~~~~~~~-1---2---1---6---5---1~~~~~~-| 
C-2---1---2---5---4~~~~~~-4~~~~~~~~~~-1---2---1---6---5---1~~~~~~-| 
pm.   .   .                           .   .   .   .   . 

================================================================== 

Guitar 1 & 2 
D-----------------------------------------------------------------| 
A-----------------------------------------------------------------| 
F-----------------------------------------------------------------| 
C-2---1---2---5---4~~~~~~-4~~~~~~~~~~-1---2---1---5~~~~~~~~~~~~~~-| 
G-2---1---2---5---4~~~~~~-4~~~~~~~~~~-1---2---1---5~~~~~~~~~~~~~~-| 
C-2---1---2---5---4~~~~~~-4~~~~~~~~~~-1---2---1---5~~~~~~~~~~~~~~-| 
pm.   .   .                           .   .   . 

================================================================== 
================================================================== 


Pre Chorus 1 

Guitar 1 & 2 
D-----------------------------------------------------------------| 
A-----------------------------------------------------------------| 
F---------2~~~~~~-------------------------------------------------| 
C-1~~~~~~-2~~~~~~-0---6---6~~~~~~~~~~-0---3---5---5~~~~~~~~~~~~~~-| 
G-1~~~~~~-0~~~~~~-0---6---6~~~~~~~~~~-0---3---5---5~~~~~~~~~~~~~~-| 
C-1~~~~~~---------0---6---6~~~~~~~~~~-0---3---5---5~~~~~~~~~~~~~~-| 

================================================================== 

Guitar 1 & 2 
D-----------------------------------------------------------------| 
A-----------------------------------------------------------------| 
F---------2~~~~~~-------------------------------------------------| 
C-1~~~~~~-2~~~~~~-0---6---6~~~~~~~~~~-0---3---5---6---5---1---5---| 
G-1~~~~~~-0~~~~~~-0---6---6~~~~~~~~~~-0---3---5---6---5---1---5---| 
C-1~~~~~~---------0---6---6~~~~~~~~~~-0---3---5---6---5---1---5---| 

================================================================== 

Guitar 1 & 2 
D-----------------------------------------------------------------| 
A-----------------------------------------------------------------| 
F---------2~~~~~~-------------------------------------------------| 
C-1~~~~~~-2~~~~~~-0---6---6~~~~~~~~~~-0---3---5---5~~~~~~~~~~~~~~-| 
G-1~~~~~~-0~~~~~~-0---6---6~~~~~~~~~~-0---3---5---5~~~~~~~~~~~~~~-| 
C-1~~~~~~---------0---6---6~~~~~~~~~~-0---3---5---5~~~~~~~~~~~~~~-| 

================================================================== 

Guitar 1 & 2 
D-----------------------------------------------------------------| 
A-----------------------------------------------------------------| 
F---------2~~~~~~-------------------------------------------------| 
C-1~~~~~~-2~~~~~~-0---6---6~~~~~~~~~~-0---3---5---6---5---0~~~~~~-| 
G-1~~~~~~-0~~~~~~-0---6---6~~~~~~~~~~-0---3---5---6---5---0~~~~~~-| 
C-1~~~~~~---------0---6---6~~~~~~~~~~-0---3---5---6---5---0~~~~~~-| 

================================================================== 
================================================================== 


Chorus 1 

Guitar 1 (x4) 
D-------------------------5~~~~~~~~~~-----------------------------| 
A-------------------------3~~~~~~~~~~-----------------------------| 
F-7---8---7---5---7~~~\~~-2~~~~~~~~~~-----------------------------| 
C-7---8---7---5---7~~~\~~-0~~~~~~~~~~-3---2~~~~~~~~~~~~~~~~~~~~~~-| 
G-5---6---5---3---5~~~\~~-0~~~~~~~~~~-3---2~~~~~~~~~~~~~~~~~~~~~~-| 
C-------------------------0~~~~~~~~~~-3---2~~~~~~~~~~~~~~~~~~~~~~-| 

Guitar 2 (x4) 
D-------------------------5~~~~~~~~~~-----------------------------| 
A-------------------------3~~~~~~~~~~-----------------------------| 
F-7---8---7---5---7~~~\~~-2~~~~~~~~~~-----------------------------| 
C-x---x---x---x---x---\---0~~~~~~~~~~-----------------------------| 
G-5---6---5---3---5~~~\~~-0~~~~~~~~~~-8-8-4-4-4-4-8-8-8-8-7-7-7-7-| 
C-------------------------0~~~~~~~~~~-----------------------------| 

================================================================== 
================================================================== 


Verse 2 

Guitar 1 & 2 
D-----------------------------------------------------------------| 
A-----------------------------------------------------------------| 
F-----------------------------------------------------------------| 
C-2---1---2---5---4~~~~~~-4~~~~~~~~~~-1---2---1---6---5---1~~~~~~-| 
G-2---1---2---5---4~~~~~~-4~~~~~~~~~~-1---2---1---6---5---1~~~~~~-| 
C-2---1---2---5---4~~~~~~-4~~~~~~~~~~-1---2---1---6---5---1~~~~~~-| 
pm.   .   .                           .   .   .   .   . 

================================================================== 

Guitar 1 & 2 
D-----------------------------------------------------------------| 
A-----------------------------------------------------------------| 
F-----------------------------------------------------------------| 
C-2---1---2---5---4~~~~~~-4~~~~-5--2--1--4--2--1--5~~~~~~~~~~~\~~-| 
G-2---1---2---5---4~~~~~~-4~~~~-5--2--1--4--2--1--5~~~~~~~~~~~\~~-| 
C-2---1---2---5---4~~~~~~-4~~~~-5--2--1--4--2--1--5~~~~~~~~~~~\~~-| 
pm.   .   .                     .  .  .  .  .  . 

================================================================== 

Guitar 1 & 2 
D-----------------------------------------------------------------| 
A-----------------------------------------------------------------| 
F-----------------------------------------------------------------| 
C-2---1---2---5---4~~~~~~-4~~~~~~~~~~-1---2---1---6---5---1~~~~~~-| 
G-2---1---2---5---4~~~~~~-4~~~~~~~~~~-1---2---1---6---5---1~~~~~~-| 
C-2---1---2---5---4~~~~~~-4~~~~~~~~~~-1---2---1---6---5---1~~~~~~-| 
pm.   .   .                           .   .   .   .   . 

================================================================== 

Guitar 1 & 2 
D-----------------------------------------------------------------| 
A-----------------------------------------------------------------| 
F-----------------------------------------------------------------| 
C-2---1---2---5---4~~~~~~-4~~~~~~~~~~-1---2---1---5~~~~~~~~~~~~~~-| 
G-2---1---2---5---4~~~~~~-4~~~~~~~~~~-1---2---1---5~~~~~~~~~~~~~~-| 
C-2---1---2---5---4~~~~~~-4~~~~~~~~~~-1---2---1---5~~~~~~~~~~~~~~-| 
pm.   .   .                           .   .   . 

================================================================== 
================================================================== 


Pre Chorus 1 

Guitar 1 & 2 
D-----------------------------------------------------------------| 
A-----------------------------------------------------------------| 
F---------2~~~~~~-------------------------------------------------| 
C-1~~~~~~-2~~~~~~-0---6---6~~~~~~~~~~-0---3---5---5~~~~~~~~~~~~~~-| 
G-1~~~~~~-0~~~~~~-0---6---6~~~~~~~~~~-0---3---5---5~~~~~~~~~~~~~~-| 
C-1~~~~~~---------0---6---6~~~~~~~~~~-0---3---5---5~~~~~~~~~~~~~~-| 

================================================================== 

Guitar 1 & 2 
D-----------------------------------------------------------------| 
A-----------------------------------------------------------------| 
F---------2~~~~~~-------------------------------------------------| 
C-1~~~~~~-2~~~~~~-0---6---6~~~~~~~~~~-0---3---5---6---5---1---5---| 
G-1~~~~~~-0~~~~~~-0---6---6~~~~~~~~~~-0---3---5---6---5---1---5---| 
C-1~~~~~~---------0---6---6~~~~~~~~~~-0---3---5---6---5---1---5---| 

================================================================== 

Guitar 1 & 2 
D-----------------------------------------------------------------| 
A-----------------------------------------------------------------| 
F---------2---2---------------------------------------------------| 
C-1---1---2---2---0---0---6---6---6---0---3---5---5---5---5---5---| 
G-1---1---0---0---0---0---6---6---6---0---3---5---5---5---5---5---| 
C-1---1-----------0---0---6---6---6---0---3---5---5---5---5---5---| 
pm.   .   .   .   .   .   .   .   .   .   .   .   .   .   .   . 

================================================================== 

Guitar 1 & 2 
D-----------------------------------------------------------------| 
A-----------------------------------------------------------------| 
F---------2---2---------------------------------------------------| 
C-1---1---2---2---0---0---6---6---6---0---3---5---6---5---0-------| 
G-1---1---0---0---0---0---6---6---6---0---3---5---6---5---0-------| 
C-1---1-----------0---0---6---6---6---0---3---5---6---5---0-------| 
pm.   .   .   .   .   .   .   .   . 

================================================================== 
================================================================== 


Chorus 2 

Guitar 1 (x4) 
D-------------------------5~~~~~~~~~~-----------------------------| 
A-------------------------3~~~~~~~~~~-----------------------------| 
F-7---8---7---5---7~~~\~~-2~~~~~~~~~~-----------------------------| 
C-7---8---7---5---7~~~\~~-0~~~~~~~~~~-3---2~~~~~~~~~~~~~~~~~~~~~~-| 
G-5---6---5---3---5~~~\~~-0~~~~~~~~~~-3---2~~~~~~~~~~~~~~~~~~~~~~-| 
C-------------------------0~~~~~~~~~~-3---2~~~~~~~~~~~~~~~~~~~~~~-| 

Guitar 2 (x4) 
D-------------------------5~~~~~~~~~~-----------------------------| 
A-------------------------3~~~~~~~~~~-----------------------------| 
F-7---8---7---5---7~~~\~~-2~~~~~~~~~~-----------------------------| 
C-x---x---x---x---x---\---0~~~~~~~~~~-----------------------------| 
G-5---6---5---3---5~~~\~~-0~~~~~~~~~~-8-8-4-4-4-4-8-8-8-8-7-7-7-7-| 
C-------------------------0~~~~~~~~~~-----------------------------| 

================================================================== 

Guitar 1 (x4) 
D-------------------------5~~~~~~~~~~-----------------------------| 
A-------------------------3~~~~~~~~~~-----------------------------| 
F-7---8---7---5---7~~~\~~-2~~~~~~~~~~-----------------------------| 
C-7---8---7---5---7~~~\~~-0~~~~~~~~~~-3---2~~~~~~-7-7-7-7-5-5-5-5-| 
G-5---6---5---3---5~~~\~~-0~~~~~~~~~~-3---2~~~~~~-----------------| 
C-------------------------0~~~~~~~~~~-3---2~~~~~~-----------------| 

Guitar 2 (x4) 
D-------------------------5~~~~~~~~~~-----------------------------| 
A-------------------------3~~~~~~~~~~-----------------------------| 
F-7---8---7---5---7~~~\~~-2~~~~~~~~~~-----------------------------| 
C-x---x---x---x---x---\---0~~~~~~~~~~-----------------------------| 
G-5---6---5---3---5~~~\~~-0~~~~~~~~~~-8-8-4-4-4-4-8-8-8-8-7-7-7-7-| 
C-------------------------0~~~~~~~~~~-----------------------------| 

================================================================== 
================================================================== 


Bridge 1 

Guitar 1 & 2 
D-----------------------------------------------------------------| 
A-----------------------------------------------------------------| 
F-----------------------------------------------------------------| 
C-0~~~~~~~~~~~~~~~~~~~~~~~~~~~~~~-ps\~~~~~~~~~~~~~~~~~~~~~~~~~~~~- 
G-0~~~~~~~~~~~~~~~~~~~~~~~~~~~~~~-ps\~~~~~~~~~~~~~~~~~~~~~~~~~~~~- 
C-0~~~~~~~~~~~~~~~~~~~~~~~~~~~~~~-ps\~~~~~~~~~~~~~~~~~~~~~~~~~~~~- 

================================================================== 
================================================================== 


Breakdown 1 

Guitar 1 
D-----------------------------------------------------------------| 
A-----------------------------------------------------------------| 
F-7-------------------------------------------------8~~~-7~~~-5---| 
C-7-------------------------------------------------8~~~-7~~~-5---| 
G-5-------------------------------------------------6~~~-5~~~-3---| 
C-----------------------------------------------------------------| 

Guitar 2 
D-----------------------------------------------------------------| 
A-----------------------------------------------------------------| 
F-7-------------------------------------------------8~~~-7~~~-5---| 
C-7-------------------------------------------------8~~~-7~~~-5---| 
G-5---5-5-5-5-5-5-5-5-5-5-5-5-5-5-5-5-5-5-5-5-5-5-5-6~~~-5~~~-3---| 
C-----------------------------------------------------------------| 
pm    . . . . . . . . . . . . . . . . . . . . . . . 

================================================================== 

Guitar 1 
D-----------------------------------------------------------------| 
A-----------------------------------------------------------------| 
F-----------------------------------------------------------------| 
C-6-------------------------------3---------------5~~~~~~-5~~~~~~-| 
G-6-------------------------------3---------------5~~~~~~-5~~~~~~-| 
C-6-------------------------------3---------------5~~~~~~-5~~~~~~-| 

Guitar 2 
D-----------------------------------------------------------------| 
A-----------------------------------------------------------------| 
F-----------------------------------------------------------------| 
C-6-------------------------------3---------------5~~~~~~-5~~~~~~-| 
G-6-------------------------------3---------------5~~~~~~-5~~~~~~-| 
C-6---6-6-6-6-6-6-6-6-6-6-6-6-6-6-3---0-0-0-0-0-0-5~~~~~~-5~~~~~~-| 
pm    . . . . . . . . . . . . . .     . . . . . . 

================================================================== 

Guitar 1 
D-----------------------------------------------------------------| 
A-----------------------------------------------------------------| 
F-7-------------------------------------------------8~~~-7~~~-5---| 
C-7-------------------------------------------------8~~~-7~~~-5---| 
G-5-------------------------------------------------6~~~-5~~~-3---| 
C-----------------------------------------------------------------| 

Guitar 2 
D-----------------------------------------------------------------| 
A-----------------------------------------------------------------| 
F-7-------------------------------------------------8~~~-7~~~-5---| 
C-7-------------------------------------------------8~~~-7~~~-5---| 
G-5---5-5-5-5-5-5-5-5-5-5-5-5-5-5-5-5-5-5-5-5-5-5-5-6~~~-5~~~-3---| 
C-----------------------------------------------------------------| 
pm    . . . . . . . . . . . . . . . . . . . . . . . 

================================================================== 

Guitar 1 
D-----------------------------------------------------------------| 
A-----------------------------------------------------------------| 
F-----------------------------------------------------------------| 
C-6~~~~~~~~~~~~~~~~~~~~~~~~~~~~~~-3~~~~~~~~~~~~~~-5---------------| 
G-6~~~~~~~~~~~~~~~~~~~~~~~~~~~~~~-3~~~~~~~~~~~~~~-5---------------| 
C-6~~~~~~~~~~~~~~~~~~~~~~~~~~~~~~-3~~~~~~~~~~~~~~-5---------------| 

Guitar 2 
D-----------------------------------------------------------------| 
A-----------------------------------------------------------------| 
F-----------------------------------------------------------------| 
C-6-------------------------------3---------------5---------------| 
G-6-------------------------------3---------------5---------------| 
C-6---6-6-6-6-6-6-6-6-6-6-6-6-6-6-3---0-0-0-0-0-0-5---------------| 
pm    . . . . . . . . . . . . . .     . . . . . . 

================================================================== 
================================================================== 


Breakdown 2 

(x4) 

Guitar 1 & 2 
D-----------------------------------------------------------------| 
A-----------------------------------------------------------------| 
F-7-------------------------------------------------8~~~-7~~~-5---| 
C-7-------------------------------------------------8~~~-7~~~-5---| 
G-5---5-5-5-5-5-5-5-5-5-5-5-5-5-5-5-5-5-5-5-5-5-5-5-6~~~-5~~~-3---| 
C-----------------------------------------------------------------| 
pm    . . . . . . . . . . . . . . . . . . . . . . . 

================================================================== 

Guitar 1 & 2 
D-----------------------------------------------------------------| 
A-----------------------------------------------------------------| 
F-----------------------------------------------------------------| 
C-6-------------------------------3---------------5---------------| 
G-6-------------------------------3---------------5---------------| 
C-6---6-6-6-6-6-6-6-6-6-6-6-6-6-6-3---0-0-0-0-0-0-5---------------| 
pm    . . . . . . . . . . . . . .     . . . . . . 

================================================================== 
================================================================== 


Guitar Solo 

Guitar 1 
D-----------------------------------------------------------------| 
A-----------------------------------------------------------------| 
F-----------------------------------------------------------------| 
C-8-------------------------------------------------9~~~-8~~~-6---| 
G-8-------------------------------------------------9~~~-8~~~-6---| 
C-8---8-8-8-8-8-8-8-8-8-8-8-8-8-8-8-8-8-8-8-8-8-8-8-9~~~-8~~~-6---| 
pm    . . . . . . . . . . . . . . . . . . . . . . . 

Guitar 2 
D-----------------------------------------------------------------| 
A/11~~~~~~~~~~~~~~~~~~~~~~~~~~~~~~~~~~~~~~~~~~~~~~~-12~~-11~~-9---| 
F-----------------------------------------------------------------| 
C-----------------------------------------------------------------| 
G-----------------------------------------------------------------| 
C-----------------------------------------------------------------| 

================================================================== 

Guitar 1 
D-----------------------------------------------------------------| 
A-----------------------------------------------------------------| 
F-----------------------------------------------------------------| 
C-8-------------------------------8---------------6~~~~~~-6~~~~~~-| 
G-8-------------------------------8---------------6~~~~~~-6~~~~~~-| 
C-8---8-8-8-8-8-8-8-8-8-8-8-8-8-8-8---8-8-8-8-8-8-6~~~~~~-6~~~~~~-| 
pm    . . . . . . . . . . . . . .     . . . . . . 

Guitar 2 
D-----------------------------------------------------------------| 
A-11~~~~~---------------------------------------------------------| 
F---------10--10~~~~~~~~~~~~~~~~~-10h11p10p8-10~~~~~~~~~~~~~~~~~~-| 
C-----------------------------------------------------------------| 
G-----------------------------------------------------------------| 
C-----------------------------------------------------------------| 

================================================================== 

Guitar 1 
D-----------------------------------------------------------------| 
A-----------------------------------------------------------------| 
F-----------------------------------------------------------------| 
C-8-------------------------------------------------9~~~-8~~~-6---| 
G-8-------------------------------------------------9~~~-8~~~-6---| 
C-8---8-8-8-8-8-8-8-8-8-8-8-8-8-8-8-8-8-8-8-8-8-8-8-9~~~-8~~~-6---| 
pm    . . . . . . . . . . . . . . . . . . . . . . . 

Guitar 2 
D-----------------------------------------------------------------| 
A/11~~~~~~~~~~~~~~~~~~~~~~~~~~~~~~~~~~~~~~~~~~~~~~~-12~~-11~~-9---| 
F-----------------------------------------------------------------| 
C-----------------------------------------------------------------| 
G-----------------------------------------------------------------| 
C-----------------------------------------------------------------| 

================================================================== 

Guitar 1 
D-----------------------------------------------------------------| 
A-----------------------------------------------------------------| 
F-----------------------------------------------------------------| 
C-8-------------------------------8---------------6~~~~~~-6~~~~~~-| 
G-8-------------------------------8---------------6~~~~~~-6~~~~~~-| 
C-8---8-8-8-8-8-8-8-8-8-8-8-8-8-8-8---8-8-8-8-8-8-6~~~~~~-6~~~~~~-| 
pm    . . . . . . . . . . . . . .     . . . . . . 

Guitar 2 
D---------13--13~~~~~~~~~~~~~~~-13-14-13-11-13-11-13~~~~~~~~~~~~~-| 
A-11~~~~~---------------------------------------------------------| 
F-----------------------------------------------------------------| 
C-----------------------------------------------------------------| 
G-----------------------------------------------------------------| 
C-----------------------------------------------------------------| 

================================================================== 

Guitar 1 
D-----------------------------------------------------------------| 
A-----------------------------------------------------------------| 
F-----------------------------------------------------------------| 
C-8-------------------------------------------------9~~~-8~~~-6---| 
G-8-------------------------------------------------9~~~-8~~~-6---| 
C-8---8-8-8-8-8-8-8-8-8-8-8-8-8-8-8-8-8-8-8-8-8-8-8-9~~~-8~~~-6---| 
pm    . . . . . . . . . . . . . . . . . . . . . . . 

Guitar 2 
D-16-18-18-16-18-18-18-16-18-19-18-16-18-19-18-16-14-16-18-16-14-16-16-14-| 
A-------------------------------------------------------------------------| 
F-------------------------------------------------------------------------| 
C-------------------------------------------------------------------------| 
G-------------------------------------------------------------------------| 
C-------------------------------------------------------------------------| 

================================================================== 

Guitar 1 
D-----------------------------------------------------------------| 
A-----------------------------------------------------------------| 
F-----------------------------------------------------------------| 
C-8-------------------------------8---------------6~~~~~~-6~~~~~~-| 
G-8-------------------------------8---------------6~~~~~~-6~~~~~~-| 
C-8---8-8-8-8-8-8-8-8-8-8-8-8-8-8-8---8-8-8-8-8-8-6~~~~~~-6~~~~~~-| 
pm    . . . . . . . . . . . . . .     . . . . . . 

Guitar 2 
D-16-18-18-16-18-18-18-16-18-19-18-18-19-21-19-19-21-22-21-22b~~~~~~~~~~~-| 
A-------------------------------------------------------------------------| 
F-------------------------------------------------------------------------| 
C-------------------------------------------------------------------------| 
G-------------------------------------------------------------------------| 
C-------------------------------------------------------------------------| 

================================================================== 

Guitar 1 
D-----------------------------------------------------------------| 
A-----------------------------------------------------------------| 
F-----------------------------------------------------------------| 
C-8-------------------------------------------------9~~~-8~~~-6---| 
G-8-------------------------------------------------9~~~-8~~~-6---| 
C-8---8-8-8-8-8-8-8-8-8-8-8-8-8-8-8-8-8-8-8-8-8-8-8-9~~~-8~~~-6---| 
pm    . . . . . . . . . . . . . . . . . . . . . . . 

Guitar 2 
D-------------------------------------------------| 
A-------------------------------------------------| 
F-------------------13-14-16-14-13----------------| 
C----------13-15-16----------------16-15-13-15-16-| 
G-13-15-16----------------------------------------| 
C-------------------------------------------------| 
Pm.  .  .  .  .  .  .  .  .  .  .  .  .  .  .  . 

Guitar 2 continued 
D-------------------------------------------------| 
A-------------------14-16-17-16-14----------------| 
F----------13-14-16----------------16-14-13-14-16-| 
C-13-15-16----------------------------------------| 
G-------------------------------------------------| 
C-------------------------------------------------| 
Pm.  .  .  .  .  .  .  .  .  .  .  .  .  .  .  . 

================================================================== 

Guitar 1 
D-----------------------------------------------------------------| 
A-----------------------------------------------------------------| 
F-----------------------------------------------------------------| 
C-8-------------------------------8---------------6~~~~~~-6~~~~~~-| 
G-8-------------------------------8---------------6~~~~~~-6~~~~~~-| 
C-8---8-8-8-8-8-8-8-8-8-8-8-8-8-8-8---8-8-8-8-8-8-6~~~~~~-6~~~~~~-| 
pm    . . . . . . . . . . . . . .     . . . . . . 

Guitar 2 
D-------------------14-16-18-16-14----------------| 
A----------14-16-17----------------17-16-14-16-14-| 
F-13-14-16----------------------------------------| 
C-------------------------------------------------| 
G-------------------------------------------------| 
C-------------------------------------------------| 
Pm.  .  .  .  .  .  .  .  .  .  .  .  .  .  .  . 

Guitar 2 continued 
D-14-16-18-16-16-18-19-18-16-18-19-18-16-18-19-18-| 
A-------------------------------------------------| 
F-------------------------------------------------| 
C-------------------------------------------------| 
G-------------------------------------------------| 
C-------------------------------------------------| 

================================================================== 
================================================================== 


Guitar 1 
D------------------------------------------------------------------| 
A------------------------------------------------------------------| 
F-7~~~~~~-7---7---7---7---7---7---7---7---7---7---8---7---5--------| 
C-7~~~~~~-7---7---7---7---7---7---7---7---7---7---8---7---5---6~~~-| 
G-5~~~~~~-5---5---5---5---5---5---5---5---5---5---6---5---3---6~~~-| 
C-------------------------------------------------------------6~~~-| 
pm        .   .   .   .   .   .   .   .   .   . 

Guitar 2 
D-21b~~~~~~~~~~~~~~~~~~~~~~~~~~~~~~~~~~~~~~~~~~~~~~~~~~~~~~~~------| 
A------------------------------------------------------------------| 
F------------------------------------------------------------------| 
C-------------------------------------------------------------6~~~-| 
G-------------------------------------------------------------6~~~-| 
C-------------------------------------------------------------6~~~-| 

================================================================== 

Guitar 1 & 2 
D-----------------------------------------------------------------| 
A-----------------------------------------------------------------| 
F-----------------------------------------------------------------| 
C-~~~-6---6-6-6---6-6-6---6-6-6---0---3---0---0---5~~~~~~-5~~~~~~-| 
G-~~~-6---6-6-6---6-6-6---6-6-6---0---3---0---0---5~~~~~~-5~~~~~~-| 
C-~~~-6---6-6-6---6-6-6---6-6-6---0---3---0---0---5~~~~~~-5~~~~~~-| 
pm    .   . . .   . . .   . . .   .       .   . 

================================================================== 

Guitar 1 & 2 
D------------------------------------------------------------------| 
A------------------------------------------------------------------| 
F-7~~~~~~-7---7---7---7---7---7---7---7---7---7---8---7---5--------| 
C-7~~~~~~-7---7---7---7---7---7---7---7---7---7---8---7---5---6~~~-| 
G-5~~~~~~-5---5---5---5---5---5---5---5---5---5---6---5---3---6~~~-| 
C-------------------------------------------------------------6~~~-| 
pm        .   .   .   .   .   .   .   .   .   . 

================================================================== 

Guitar 1 & 2 
D-----------------------------------------------------------------| 
A-----------------------------------------------------------------| 
F-----------------------------------------------------------------| 
C-~~~-6---6-6-6---6-6-6---6-6-6---0---3---0---0---5~~~~~~-5~~~~~~-| 
G-~~~-6---6-6-6---6-6-6---6-6-6---0---3---0---0---5~~~~~~-5~~~~~~-| 
C-~~~-6---6-6-6---6-6-6---6-6-6---0---3---0---0---5~~~~~~-5~~~~~~-| 
pm    .   . . .   . . .   . . .   .       .   . 

================================================================== 

Guitar 1 & 2 
D------------------------------------------------------------------| 
A------------------------------------------------------------------| 
F-7~~~~~~-7---7---7---7---7---7---7---7---7---7---8---7---5--------| 
C-7~~~~~~-7---7---7---7---7---7---7---7---7---7---8---7---5---6~~~-| 
G-5~~~~~~-5---5---5---5---5---5---5---5---5---5---6---5---3---6~~~-| 
C-------------------------------------------------------------6~~~-| 
pm        .   .   .   .   .   .   .   .   .   . 

================================================================== 

Guitar 1 & 2 
D-----------------------------------------------------------------| 
A-----------------------------------------------------------------| 
F-----------------------------------------------------------------| 
C-~~~-6---6-6-6---6-6-6---6-6-6---0---3---0---0---5~~~~~~-5~~~~~~-| 
G-~~~-6---6-6-6---6-6-6---6-6-6---0---3---0---0---5~~~~~~-5~~~~~~-| 
C-~~~-6---6-6-6---6-6-6---6-6-6---0---3---0---0---5~~~~~~-5~~~~~~-| 
pm    .   . . .   . . .   . . .   .       .   . 

================================================================== 

Guitar 1 & 2 
D------------------------------------------------------------------| 
A------------------------------------------------------------------| 
F-7~~~~~~-7---7---7---7---7---7---7---7---7---7---8---7---5--------| 
C-7~~~~~~-7---7---7---7---7---7---7---7---7---7---8---7---5---6~~~-| 
G-5~~~~~~-5---5---5---5---5---5---5---5---5---5---6---5---3---6~~~-| 
C-------------------------------------------------------------6~~~-| 
pm        .   .   .   .   .   .   .   .   .   . 

================================================================== 

Guitar 1 & 2 
D-----------------------------------------------------------------| 
A-----------------------------------------------------------------| 
F-----------------------------------------------------------------| 
C-~~~-6---6-6-6---6-6-6---6-6-6---0---3---0---0---5---0---5---0---| 
G-~~~-6---6-6-6---6-6-6---6-6-6---0---3---0---0---5---0---5---0---| 
C-~~~-6---6-6-6---6-6-6---6-6-6---0---3---0---0---5---0---5---0---| 
pm    .   . . .   . . .   . . .   .       .   .       .       . 

================================================================== 

Guitar 1 & 2 
D-----------------------------------------------------------------| 
A-----------------------------------------------------------------| 
F-----------------------------------------------------------------| 
C-0---3---0---0---6---0---6---0---0---5---0---0---6---0---5---0---| 
G-0---3---0---0---6---0---6---0---0---5---0---0---6---0---5---0---| 
C-0---3---0---0---6---0---6---0---0---5---0---0---6---0---5---0---| 
pm.       .   .       .       .   .       .   .       .       . 

================================================================== 

Guitar 1 
D-----------------------------------------------------------------| 
A-----------------------------------------------------------------| 
F-----------------------------------------------------------------| 
C-0---3---0---0---5---0---5---0---5~~~~~~-6~~~~~~-3~~~~~~-1~~~~~~-| 
G-0---3---0---0---5---0---5---0---5~~~~~~-6~~~~~~-3~~~~~~-1~~~~~~-| 
C-0---3---0---0---5---0---5---0---5~~~~~~-6~~~~~~-3~~~~~~-1~~~~~~-| 
pm.       .   .       .       . 

Guitar 2 
D-----------------------------------------------------------------| 
A-----------------------------------------------------------------| 
F---------------------------------7~~~~~~-8~~~~~~-5~~~~~~-3~~~~~~-| 
C-0---3---0---0---5---0---5---0---x-------x-------x-------x-------| 
G-0---3---0---0---5---0---5---0---5~~~~~~-6~~~~~~-3~~~~~~-1~~~~~~-| 
C-0---3---0---0---5---0---5---0-----------------------------------| 
pm.       .   .       .       . 

================================================================== 
================================================================== 


Chorus 3 

Guitar 1 (x4) 
D-------------------------5~~~~~~~~~~-----------------------------| 
A-------------------------3~~~~~~~~~~-----------------------------| 
F-7---8---7---5---7~~~\~~-2~~~~~~~~~~-----------------------------| 
C-7---8---7---5---7~~~\~~-0~~~~~~~~~~-3---2~~~~~~-7-7-7-7-5-5-5-5-| 
G-5---6---5---3---5~~~\~~-0~~~~~~~~~~-3---2~~~~~~-----------------| 
C-------------------------0~~~~~~~~~~-3---2~~~~~~-----------------| 

Guitar 2 (x4) 
D-------------------------5~~~~~~~~~~-----------------------------| 
A-------------------------3~~~~~~~~~~-----------------------------| 
F-7---8---7---5---7~~~\~~-2~~~~~~~~~~-----------------------------| 
C-x---x---x---x---x---\---0~~~~~~~~~~-----------------------------| 
G-5---6---5---3---5~~~\~~-0~~~~~~~~~~-8-8-4-4-4-4-8-8-8-8-7-7-7-7-| 
C-------------------------0~~~~~~~~~~-----------------------------| 

================================================================== 

Guitar 1 (x4) 
D-------------------------5~~~~~~~~~~-----------------------------| 
A-------------------------3~~~~~~~~~~-----------------------------| 
F-7---8---7---5---7~~~\~~-2~~~~~~~~~~-----------------------------| 
C-7---8---7---5---7~~~\~~-0~~~~~~~~~~-3---2~~~~~~-----------------| 
G-5---6---5---3---5~~~\~~-0~~~~~~~~~~-3---2~~~~~~-----------------| 
C-------------------------0~~~~~~~~~~-3---2~~~~~~-3-3-3-3-2-2-2-2-| 

Guitar 2 (x4) 
D-------------------------5~~~~~~~~~~-----------------------------| 
A-------------------------3~~~~~~~~~~-----------------------------| 
F-7---8---7---5---7~~~\~~-2~~~~~~~~~~-----------------------------| 
C-x---x---x---x---x---\---0~~~~~~~~~~-----------------------------| 
G-5---6---5---3---5~~~\~~-0~~~~~~~~~~-8-8-4-4-4-4-8-8-8-8-7-7-7-7-| 
C-------------------------0~~~~~~~~~~-----------------------------| 

================================================================== 
================================================================== 


Outro 

Guitar 1 
D-----------------------------------------------------------------| 
A-----------------------------------------------------------------| 
F-----------------------------------------------------------------| 
C-0~~~~~~~~~~~~~~~~~~~~~~~~~~~~~~~~~~~~~~~~~~~~~~~~~~~~~~~~~~~~~~-| 
G-0~~~~~~~~~~~~~~~~~~~~~~~~~~~~~~~~~~~~~~~~~~~~~~~~~~~~~~~~~~~~~~-| 
C-0~~~~~~~~~~~~~~~~~~~~~~~~~~~~~~~~~~~~~~~~~~~~~~~~~~~~~~~~~~~~~~-| 

Guitar 2 
D-----------------------------------------------------------------| 
A-----------------------------------------------------------------| 
F-7~~~~~~~~~~~~~~~~~~~~~~~~~~~~~~~~~~~~~~~~~~~~~~~~~~~~~~~~~~~~~~-| 
C-x---------------------------------------------------------------| 
G-5~~~~~~~~~~~~~~~~~~~~~~~~~~~~~~~~~~~~~~~~~~~~~~~~~~~~~~~~~~~~~~-| 
C-----------------------------------------------------------------|  
		  

Full key step upFull key step up
Half key step upHalf key step up
Half key step downHalf key step down
Full key step downFull key step down
hide glossary

See also:

tabs Metallica - Nothing Else Matters tabs Metallica - For Whom The Bell Tolls tabs Megadeth - Holy Wars...The Punishment Due tabs Metallica - One tabs Metallica - Low Man's Lyric tabs Metallica - Orion
e-chords

Other versions:

tabs Shadows fall - Fire From The Sky
auto scroll beats size up size down change color hide chords drawings
tab show chords e-chords YouTube Clip e-chords hide all tabs e-chords go to top tab

share