Sextrash

Funeral Serenade

Sextrash

tabs

by  ALEFFEDERICO

save to print version add songbook text version e-mail correct tuner
chordsukulelecavacokeyboardtabbassdrumsharmonicaflute Guitar Pro
close

there isn't a video lesson for this song

chords

Funeral Serenade

	  		
Tuning: D standard 

Riff A 

D|------------------------------------| 
A|------------------------------------| 
F|------------------------------------| 
C|------------------------------------| 
G|2-2------2-2------2-2------11114444-| 
D|0-0-1222-0-0-1222-0-0-1222----------| 
  . . .... . . .... . . .... 

Riff B 

D|--------------------------------------------------------------------------------| 
A|--------------------------------------------------------------------------------| 
F|--------------------------------------------------------------------------------| 
C|--------------------------------------------------------------------------------| 
G|2------2------2----2------2------2-------3------3------3----1------1------1-----| 
D|0-0000-0-0000-0-00-3-3333-3-3333-3333-33-1-1111-1-1111-1-11-2-2222-2-2222-2-2222| 

Riff C 

D|------------------------------------------------------------------| 
A|------------------------------------------------------------------| 
F|------------------------------------------------------------------| 
C|------------------------------------------------------------------| 
G|--------------------------------------------------------------5-6-| 
D|0000000000000000666666666666666611111111111111114444444444444-3-4-| 
  ............................................................. 

Fill 

D|------| 
A|------| 
F|------| 
C|------| 
G|5-6-2~| 
D|3-4-0~| 

Riff Da (Rhythm) 

D|-------------------------------------------------------------------------| 
A|-------------------------------------------------------------------------| 
F|---------------------------------------------10--------------------------| 
C|---------3--------3--------6--------9--------8--------10-------13--------| 
G|2--------1--------3--------6--------7-----------------8--------11--------| 
D|0-----------------1--------4---------------------------------------------| 

Riff Db (Lead) 

D|-------------------------------------| 
A|-------------------------------------| 
F|-----------4\15 ---------------------| 
C|-----------x-x-----------------------| 
G|2----3-2---2\13----------------------| 
D|0-00-1-0-0---------------------------| 
    ..      

Riff E (Let it ring) 

D|---------------------------------| 
A|--------------------8--------8---| 
F|--------9-------8-------10-------| 
C|----9-------9--------------------| 
G|---------------------------------| 
D|0--------------------------------| 

Riff F 

D|--------------------------------| 
A|--------------------------------| 
F|--------------------------------| 
C|--------------------------------| 
G|--------7777----66665555----6666| 
D|00007777----7777--------8888----| 
  ................................ 

Fill 

D|----------------| 
A|----------------| 
F|----------------| 
C|8-8-------5-5---| 
G|6-6-------5-5---| 
D|----------3-3---| 

. = pm 
\ = slide down 
~ = let it ring 

Listen to the song to get its structure. 
		  

Full key step upFull key step up
Half key step upHalf key step up
Half key step downHalf key step down
Full key step downFull key step down
hide glossary

See also:

tabs Ira! - Poço de Sensibilidade (Solo - Acustico Mtv) tabs Deep Purple - Smoke On The Water tabs Deep Purple - Smoke on the water (intro) tabs Ira! - Eu Quero Sempre Mais (Com Pitty, intro) tabs Deep Purple - Smoke on the Water (ver. 2) tabs Deep Purple - Knocking At Your Back Door
e-chords

Other versions:

tabs Sextrash - Funeral Serenade
auto scroll beats size up size down change color hide chords drawings
tab show chords e-chords YouTube Clip e-chords hide all tabs e-chords go to top tab

share