Seventeen

Clap

Seventeen

tabs

by  ANG-LETRA

save to print version add songbook text version e-mail correct tuner
chordsukulelecavacokeyboardtabbassdrumsharmonicaflute Guitar Pro
close

there isn't a video lesson for this song

chords

Clap

	  		
Intro:
e|---------------------------------| 
B|---------------------------------| 
G|---------------------------------| 
D|---------------------------------| 
A|------------4^-6^-----------4^\--| 
E|--6h4-6h4-6-------6h4-6h4-6------| x2 

Verse "Gwenchanha Gwenchanha..." 
e|---------------------------------| 
B|---------------------------------| 
G|---------------------------------| 
D|---------------------------------| 
A|------------4^-6^-----------4^\--| 
E|--6h4-6h4-6-------6h4-6h4-6------| x4 

Pre Chorus "wae nahanteman ireona shipgo..." 
e|-----------------------------| 
B|-----------------------------| 
G|----------8~--10-10--13-13\--| 
D|--8~--6~--8~--10-10--13-13\--| 
A|--8~--6~--6~--8--8---11-11\--| 
E|--6~--4~---------------------| 

Chorus 
e|---------------------------------------------------------------| 
B|---------------------------------------------------------------| 
G|---------------------------------------------------------------| 
D|---------------------------------------------------------------| 
A|------------4^-6^-----------4^\-----------4^-6^-----------4----| 
E|--6h4-6h4-6-------6h4-6h4-6-----6h4-6h4-6-------6h4-6h4-6---4--| 

e|---------------------------------6p4-----------------------------------------| 
B|------------------------------------h6p4-------------------------------------| 
G|----------------------------------------h6p3---------------------------------| 
D|-----------------------------------------------------------------------------| 
A|------------4^-6^-----------4^\-------------------------4^-6^-----------4----| 
E|--6h4-6h4-6-------6h4-6h4-6-------------------6h4-6h4-6-------6h4-6h4-6---4--| 

On the 2nd "woo jjak jjak jjak jjak" 
e|----------| 
B|----------| 
G|----------| 
D|-8-8-8-8--| 
A|-8-8-8-8--| 
E|-6-6-6-6--| 

2nd Verse 
Seungcheol's rap: 
e|------------------------------| 
B|------------------------------| 
G|------------------------------| 
D|------------------------------| 
A|-------------4--6-------------| 
E|--6h4-6h4-6--------6h4-6h4-6--| 
    X X X X X  X  X  X X X X X 

Vernon's rap: 
e|-------------------------------| 
B|-------------------------------| 
G|-------------------------------| 
D|-------------------------------| 
A|------------4-6-----------4----| 
E|--4h6r4h6r4-----6h4-6h4-6---4--| 
    X X X X X X X X X X X X X X  

Vocals: 
e|---------------------------------------------------------------| 
B|---------------------------------------------------------------| 
G|---------------------------------------------------------------| 
D|---------------------------------------------------------------| 
A|------------4^-6^-----------4^\-----------4^-6^-----------4----| 
E|--6h4-6h4-6-------6h4-6h4-6-----6h4-6h4-6-------6h4-6h4-6---4--| 

Pre Chorus "wae nahanteman ireona shipgo..." 
e|-----------------------------| 
B|-----------------------------| 
G|----------8~--10-10--13-13\--| 
D|--8~--6~--8~--10-10--13-13\--| 
A|--8~--6~--6~--8--8---11-11\--| 
E|--6~--4~---------------------| 

Chorus 
e|---------------------------------------------------------------| 
B|---------------------------------------------------------------| 
G|---------------------------------------------------------------| 
D|---------------------------------------------------------------| 
A|------------4^-6^-----------4^\-----------4^-6^-----------4----| 
E|--6h4-6h4-6-------6h4-6h4-6-----6h4-6h4-6-------6h4-6h4-6---4--| 

e|---------------------------------6p4-----------------------------------------| 
B|------------------------------------h6p4-------------------------------------| 
G|----------------------------------------h6p3---------------------------------| 
D|-----------------------------------------------------------------------------| 
A|------------4^-6^-----------4^\-------------------------4^-6^-----------4----| 
E|--6h4-6h4-6-------6h4-6h4-6-------------------6h4-6h4-6-------6h4-6h4-6---4--| 

Bridge - Here it's just synth but if you want to play along: 
e|----------------------------------------------------| 
B|----------------------------------------------------| 
G|----------------------------------------------------| 
D|-------------------------------------------8-8-8-8--| 
A|------------4-6----------4-13\-------4-6---8-8-8-8--| 
E|--6h4-6h4-6-----6h4--6h4---------6-6-------6-6-6-6--| 
    X X X X X X X X X  X X X       X X X X   

e|----------------| 
B|----------------| 
G|--8~--10~--13~--| 
D|--8~--10~--13~--| 
A|--6~--8~---11~--| 
E|----------------| 
note with the last power chord you can let it ring out  
       or you can go crazy by strumming it continuously 

Outro 
then add this at the end 
e|--6p4----------| 
B|-----h6p4------| 
G|---------h6p3--| 
D|---------------| 
A|---------------| 
E|---------------| 



************************************ 

| h  Hammer-on 
| \  Slide down 
| ~  Vibrato 
| p  Pull-off 
| r  Release 

************************************ 
		  

See also:

tabs Yuna - Deeper Conversation tabs Seventeen - Clap tabs Yuna - Decorate tabs Dewa 19 - Kangen tabs Vierra - Terlalu Lama (solo) tabs Sandy Sandoro - Be My Lady
e-chords

Other versions:

tabs Seventeen - Clap tabs Ja Rule - Clap Back
auto scroll beats size up size down change color hide chords drawings
tab show chords e-chords YouTube Clip e-chords hide all tabs e-chords go to top tab

share