Sevendust

The Truth

Sevendust

tabs

by  DEIVCAVALCANTI

save to print version add songbook text version e-mail correct tuner
chordsukulelecavacokeyboardtabbassdrumsharmonicaflute Guitar Pro
close

there isn't a video lesson for this song

chords

The Truth

	  		
Riff 1 
 B|-------------------------------------------------------------------------------------------------| 
F#|-------------------------------------------------------------------------------------------------| 
 E|-------------------------------------------------------------------------------------5-5-5-5-5/7-| 
 B|-------------------------------------------------------------------------------------x-x-x-x-x-x-| 
F#|-----------------------------------------5-------------------------------------------3-3-3-3-3/5-| 
 B|-0-0-0-3-0-3-0-0-0-3-0-3-0-0-0-3-0-0-5h6---6-5-3-0-0-0-3-0-3-0-0-0-3-0-5-0-0-0-8-0-0-------------| 
    * * *   *   * * *   *   * * *   * *             * * *   *   * * *   *   * * *   * * 

Play Riff 1 x2 

Riff 2 (w/ wah)   "No more time for saving..." 
 B|-----------------------------------------| 
F#|-----------------------------------------| 
 E|-----------------------------------------| 
 B|-----------------------------------------| wah starts open and gradually closes, 2nd time through 
F#|-----------------------------------------| do the opposite 
 B|-0--0--0-0-0--0--0-0-0--0--0-0-0--0--0-0-| 

Riff 3   "What the hell did you give..." 
 B|-----------------------------------------| 
F#|-----------------------------------------| 
 E|-----------------------------------------| 
 B|-----------------------------------------| 
F#|-0--0--0-0-0--0--0-0-0--0--0-0-0--0--0-0-| 
 B|-0--0--0-0-0--0--0-0-0--0--0-0-0--0--0-0-| 
    *  *  * * *  *  * * *  *  * * *  *  * * 

Play Riff 2 x1   "Just more numb to waste it..." 
Play Riff 3 x1   "You will mean nothing..." 

Riff 4   "One more tragic instant lost..." 
 B|----------------------------------------------| 
F#|----------------------------------------------| 
 E|-------------------7/9---9/10---10/12---12/14-| 
 B|-------------------x-x---x-x----x--x----x--x--| 
F#|-8-5-0-8-5-0-7-5-0-5/7-0-7/8--0-8//10-0-10/12-| 
 B|----------------------------------------------| 

Play Riff 1 x2   "Right underneath..." 

Fill 1 
 B|-----| 
F#|-----| 
 E|-----| 
 B|-----| 
F#|-----| 
 B|-3b5-| 

Riff 5   "Why does it always seem to rain..." 
 B|-------------------------------------------------5*-| 
F#|-------------------------------------------------5*-| 
 E|----------------------------------------------------| 
 B|---------------------------------0---0--------------| 
F#|---------------------------6-5---------3--3--3-3----| 
 B|-0-/12-10-12-10-12--/12-10-6-5-4---3----------------| 
                                          *  *  * * 

 B|--------------------------------------------------| 
F#|--------------------------------------------------| 
 E|--------------------------------------------------| 
 B|--------------------------------------------------| 
F#|---------------------------6-5-8--8--8-8-10\------| 
 B|-0-/12-10-12-10-12--/12-10-6-5-8--8--8-8-10\--x-1-| 

 B|------------------------------------------------------| 
F#|------------------------------------------------------| 
 E|------------------------------------------------------| 
 B|---------------------------------0---0----------------| 
F#|---------------------------6-5---------x--x--x-x-x--x-| 
 B|-0-/12-10-12-10-12--/12-10-6-5-4---3---x--x--x-x-x--x-| 

 B|---------------------------------------------------| 
F#|---------------------------------------------------| 
 E|------------------------------------------------8\-| 
 B|------------------------------------------------x--| 
F#|---------------------------6-5-8--8--8-8-10\----6\-| 
 B|-0-/12-10-12-10-12--/12-10-6-5-8--8--8-8-10\--x----| 

Play Riff 2 x1   "One more time for raging..." 
Play Riff 3 x1   "What the hell did you give..." 
Play Riff 2 x1   "Won't be long to hating..." 
Play Riff 3 x1   "You will mean nothing..." 
Play Riff 4 x1   "Your last tragic instant lost..." 
Play Riff 1 x2   "Right underneath..." 
Play Fill 1 x1 
Play Riff 5 x1   "Why does it always rain..." 

Fill 2 
 B|-------------------------| 
F#|-------------------------| 
 E|-------------------------| 
 B|-------------------------| 
F#|-------------------------| 
 B|-0-0-0--0-0-0--0-0-0-3b5-| 
    * * *  * * *  * * * 

Riff 6   "Say my name..." 
 B|-----------------------------------------------------------------------------| 
F#|-----------------------------------------------------------------------------| 
 E|--------------------------------------------------------------------------7b-| 
 B|--------------------------------------------------------------------------x--| 
F#|-0-0-0--0-0-0--0-0-0--0-0-0--0-0-0--0-0-0--0-0-0--0-0-0--0-0-0--0-0-0-0-0-5b-| 
 B|-0-0-0--0-0-0--0-0-0--0-0-0--0-0-0--0-0-0--0-0-0--0-0-0--0-0-0--0-0-0-0-0----| 
    * * *  * * *  * * *  * * *  * * *  * * *  * * *  * * *  * * *  * * * * * 

 B|------------------------------------------------------------------------| 
F#|------------------------------------------------------------------------| 
 E|------------------------------------------------------------------------| 
 B|------------------------------------------------------------------------| 
F#|-0-0-0--0-0-0--0-0-0--0-0-0--0-0-0--0-0-0--0-0-0--0-0-0--0-0-0--0-0-----| 
 B|-0-0-0--0-0-0--0-0-0--0-0-0--0-0-0--0-0-0--0-0-0--0-0-0--0-0-0--0-0-3b5-| 
    * * *  * * *  * * *  * * *  * * *  * * *  * * *  * * *  * * *  * * 

Play Riff 6 x2   "Say my name..." 

Riff 7   "Lost, right underneath..." 
 B|-------------------------------------| 
F#|-------------------------------------| 
 E|-------------------------------------| 
 B|-------------------------------------| 
F#|-----------------------------5-------| 
 B|-0-0-0---0-0-0---0-0-0---5h6---6-5-3-| 
    * * *   * * *   * * * 

Play Riff 7 x2 

Riff 8   "We stay asleep..." 
 B|-------------------------------------------------| 
F#|-------------------------------------------------| 
 E|-------------------------------------------------| 
 B|-------------------------------------------------| 
F#|-----------------------------------------5-------| 
 B|-0-0-0-3-0-3-0-0-0-3-0-3-0-0-0-3-0-0-5h6---6-5-3-| 
    * * *   *   * * *   *   * * *   * * 

 B|-----------------------------------------------------------------------------| 
F#|-----------------------------------------------------------------------------| 
 E|-----------------------------------------------------------------------------| 
 B|-----------------------------------------------------------------------------| 
F#|-----------------------------------------5-----------5-----------5-----------| 
 B|-0-0-0-3-0-3-0-0-0-3-0-3-0-0-0-3-0-0-5h6---6-5-3-5h6---6-5-3-5h6---6-5-3-3b5-| 
    * * *   *   * * *   *   * * *   * * 

Play Riff 5 x1   "Why does it always seem to rain..." 
                  (slight changes this time, listen to song for them) 

Riff 5 ending 
 B|--------| 
F#|--------| 
 E|--------| 
 B|--------| 
F#|-8----1-| 
 B|-8----1-| 

Play Riff 6 x1 

Enjoy!! 
		  

See also:

tabs Slipknot - Duality(ver 2) tabs Slipknot - Surfacing tabs Rainbow - Long Live Rock N' Roll tabs Dream Theater - As I Am tabs Pantera - Hollow tabs Slipknot - The Blister Exists
e-chords

Other versions:

tabs Limp Bizkit - The Truth tabs Dr. Dog - The Truth tabs Sevendust - The Truth tabs Cog - The Truth And Other Lies tabs Theory of a Deadman - The Truth Is (i Lied About Everything) tabs BTS - The Truth Untold
auto scroll beats size up size down change color hide chords drawings
tab show chords e-chords YouTube Clip e-chords hide all tabs e-chords go to top tab

share