Sevendust

Thank You

Sevendust

tabs

by  GUSTSILVA

save to print version add songbook text version e-mail correct tuner
chordsukulelecavacokeyboardtabbassdrumsharmonicaflute Guitar Pro
close

there isn't a video lesson for this song

chords

Thank You

	  		Riff 1 
 C|---------------------------------------------------------------------------| 
 G|---------------------------------------------------------------------------| 
D#|---------------------------------------------------------------------------| 
A#|---------------------------------------------------------------------------| 
 F|-0-0-0-0-0-0-0-0-0-----------------0-0-0-0-0-0-----------------0-0-0-0-0-0-| 
A#|-0-0-0-0-0-0-0-0-0--0-5-3-0-1-0-1b-0-0-0-0-0-0--0-5-3-0-1-0-1b-0-0-0-0-0-0-| 
    * * * * * * * * *  * * * * * *    * * * * * *  * * * * * *    * * * * * * 

 C|--------------------------------------------------| 
 G|--------------------------------------------------| 
D#|---------------13-13-13-13-13-13-13-13-13---8-8-8-| 
A#|---------------x--x--x--x--x--x--x--x--x----x-x-x-| 
 F|---------------11-11-11-11-11-11-11-11-11---6-6-6-| 
A#|-0-5-3-0-1-0-1----------------------------0-------| 
    * * * * * * * 

 C|-----------------------------------------------------------------------| 
 G|-----------------------------------------------------------------------| 
D#|-----------------------------------------------------------------------| 
A#|-----------------------------------------------------------------------| 
 F|-0-0-0-0-0-0-0-0-0-----------------0-0-0-0-0-----------------0-0-0-0-0-| 
A#|-0-0-0-0-0-0-0-0-0--0-5-3-0-1-0-1b-0-0-0-0-0--0-5-3-0-1-0-1b-0-0-0-0-0-| 
    * * * * * * * * *  * * * * * *    * * * * *  * * * * * *    * * * * * 

 C|-----------------------------------------------------| 
 G|-----------------------------------------------------| 
D#|---------------13-13-13-13-13-13-13-13-13---17-17-17-| 
A#|---------------x--x--x--x--x--x--x--x--x----x--x--x--| 
 F|---------------11-11-11-11-11-11-11-11-11---15-15-15-| 
A#|-0-5-3-0-1-0-1----------------------------0----------| 
    * * * * * * * 

Riff 2   "So help me to see..." (all palm-muted) 
 C|-------------------------------------------------------------------------------------------------| 
 G|-------------------------------------------------------------------------------------------------| 
D#|-------------------------------------------------------------------------------------------------| 
A#|-15-15-15-15-15-15-15-15-15-15-15-15-15-15-15-15-15-15-15-15-15-15-15-15-17-17-17-17-17-17-17-17-| 
 F|-------------------------------------------------------------------------------------------------| 
A#|-------------------------------------------------------------------------------------------------| 

 C|-------------------------------------------------------------------------------------------------| 
 G|-------------------------------------------------------------------------------------------------| 
D#|-------------------------------------------------------------------------------------------------| 
A#|-14-14-14-14-14-14-14-14-14-14-14-14-14-14-14-14-12-12-12-12-12-12-12-12-10-10-10-10-10-10-12-14-| 
 F|-------------------------------------------------------------------------------------------------| 
A#|-------------------------------------------------------------------------------------------------| 

 C|-------------------------------------------------------------------------------------------------| 
 G|-------------------------------------------------------------------------------------------------| 
D#|-------------------------------------------------------------------------------------------------| 
A#|-15-15-15-15-15-15-15-15-15-15-15-15-15-15-15-15-12-14-15-15-15-15-15-15-17-17-17-17-17-17-17-17-| 
 F|-------------------------------------------------------------------------------------------------| 
A#|-------------------------------------------------------------------------------------------------| 

 C|-------------------------------------------------------------------------------------------------| 
 G|-------------------------------------------------------------------------------------------------| 
D#|-------------------------------------------------------------------------------------------------| 
A#|-14-14-14-14-14-14-14-14-14-14-14-14-14-14-14-14-12-12-12-12-12-12-12-12-10-10-10-10-10-10-10-10-| 
 F|-------------------------------------------------------------------------------------------------| 
A#|-------------------------------------------------------------------------------------------------| 

Play Riff 2 x2   "On my own, forgive me now we know..." 
Play Riff 1 x1   "Just wait, feel it coming now..." 

Riff 3 
 C|-----------------------------------------------------------------------| 
 G|-----------------------------------------------------------------------| 
D#|-10p9----9-------------------------------------------------------------| 
A#|------12---12-0-8/10\8-0-8\7-0-7\3-0-5p3-5/7-0-0-8\7-0-7\3-0-3h5p3\2h3-| 
 F|-----------------------------------------------------------------------| 
A#|-----------------------------------------------------------------------| 
         *  * *  *        *     *     *         * *     *     * 

Riff 4   "So thanks for coming around..." 
 C|----------------------------------------------------------------| 
 G|----------------------------------------------------------------| 
D#|----------------------------------------------------------------| 
A#|-0------------8-------5------0--------------8-------5-----------| 
 F|-0------------8-------5------0--------------8-------5-----------| 
A#|-0------------8-------5------0--------------8-------5---8~--1~--| 

Fill 1 
 C|------------------------------| 
 G|------------------------------| 
D#|------------------------------| 
A#|------------------------------| 
 F|-0-0-0-0-0-0-0-0-0------------| 
A#|-0-0-0-0-0-0-0-0-0--0-5-3-0-1-| 
    * * * * * * * * *  * * * * * 

Play Riff 2 x2   "Been holding on so long..." 
Play Riff 1 x0.5 "The time has come..." 
Play Riff 3 x1 
Play Riff 4 x1   "So thanks for coming around..." 

Riff 4 cont'd    
 C|----------------------------------------------------------| 
 G|----------------------------------------------------------| 
D#|----------------------------------------------------------| 
A#|-0-----------8-------5------0--------------8-------5--7-1-| 
 F|-0-----------8-------5------0--------------8-------5--7-1-| 
A#|-0-----------8-------5------0--------------8-------5--7-1-| 
                                                         * 

Play Riff 3 x2 
Play Riff 4 x2   "So thanks for coming around..." 
                 (first time through, strum each chord instead of letting them ring out) 
Play Riff 1 x1 

Enjoy!! 
		  

See also:

tabs Slipknot - Duality(ver 2) tabs Slipknot - Surfacing tabs Rainbow - Long Live Rock N' Roll tabs Dream Theater - As I Am tabs Pantera - Hollow tabs Slipknot - The Blister Exists
e-chords

Other versions:

tabs Led Zeppelin - Thank You tabs Simple Plan - Thank you tabs Mkto - Thank You tabs Sly and the family stone - Thank You tabs Evans Blue - Thank You tabs Sevendust - Thank You
auto scroll beats size up size down change color hide chords drawings
tab show chords e-chords YouTube Clip e-chords hide all tabs e-chords go to top tab

share