Sevendust

Life Deceives You

Sevendust

tabs

by  DEIVCAVALCANTI

save to print version add songbook text version e-mail correct tuner
chordsukulelecavacokeyboardtabbassdrumsharmonicaflute Guitar Pro
close

there isn't a video lesson for this song

chords

Life Deceives You

	  		
Riff 1 (w/ reverb and delay)   "I found the whole thing out..." 
C|-----------------------------------------------------------------------------------------| 
G|-10-10-10-10-10-10-10-10-9-9-9-9-9-9-9-9-10-10-10-10-10-10-10-10-12-12-12-12-12-12-12-12-| 
F|-----------------------------------------------------------------------------------------| 
C|-----------------------------------------------------------------------------------------| 
G|-----------------------------------------------------------------------------------------| 
G|-----------------------------------------------------------------------------------------| 
      *  *     *  *     *    * *   * *   *    *  *     *  *     *     *  *     *  *     * 

C|-------------------------------------------------------------------------------------------| 
G|-14-14-14-14-14-14-14-14-17-17-17-17-15-15-15-15-14-14-14-14-14-14-14-14-17-17-17-17-15-14-| 
F|-------------------------------------------------------------------------------------------| 
C|-------------------------------------------------------------------------------------------| 
G|-------------------------------------------------------------------------------------------| 
G|-------------------------------------------------------------------------------------------| 
      *  *     *  *     *     *  *        *  *        *  *     *  *     *     *  * 

Riff 2   "If we could work it out..." 
C|-----------------------------------------------------------------| 
G|-----------------------------------------------------------------| 
F|-----------------------------------------------------------------| 
C|-----------------7-7-7-7-7-7-7-7-5-5-5-5-5-5-5-5-0-0-0-0-0-0-0-0-| 
G|-7-7-7-7-7-7-7-7-------------------------------------------------| 
G|-----------------------------------------------------------------| 
   * * * * * * * * * * * * * * * * * * * * * * * * * * * * * * * * 

C|-----------------------------------------------------------------| 
G|-----------------------------------------------------------------| 
F|-5-----5-----5---4-----4-----4---5-----5-----5---4-------5/7-7-7-| 
C|---0-0---0-0---0---0-0---0-0---0---0-0---0-0---0---0-0-0-x-x-x-x-| 
G|---------------------------------------------------------3/5-5-5-| 
G|-----------------------------------------------------------------| 
     * *   * *   *   * *   * *   *   * *   * *   *   * * * 

Riff 3   "Shame, as I was coming undone..." 
C|-------------------------------------------------------------------------------------------| 
G|-------------------------------------------------------------------------------------------| 
F|-9-9-9--9----------------------------------------------------------------------------------| 
C|-9-9-9--9-2-2-2--2-12-12-12--12-7-7-7--7-5-5-5--5--5-5-5-5--5--5-5-5\--5--5-5-5-5--5/7-7-7-| 
G|-7-7-7--7-0-0-0--0-10-10-10--10-5-5-5--5-3-3-3--3--3-3-3-3--3--3-3-3\--3--3-3-3-3--3/5-5-5-| 
G|----------0-0-0--0-10-10-10--10-5-5-5--5-3-3-3--3--3-3-3-3--3--3-3-3\--3--3-3-3-3--3/5-5-5-| 

Play Riff 3 x2   "No, I just can't do it alone..." 

Fill 1 
C|-------------------------------| 
G|-------------------------------| 
F|-------------------------------| 
C|-/9~---------------------------| 
G|-------------------------------| 
G|-------------------------------| 

Play Riff 2 x2   "You knew forever burned..." 
Play Riff 3 x2   "Shame, as I was coming undone..." 

Riff 4 (clean, let all notes ring out)   "You are the only one..." 
C|---------0------0---------0------0---------0------0---------0------0-| 
G|-------0---0--0---------0---0--0---------0---0--0---------0---0--0---| 
F|-----0----------------0----------------0----------------0------------| 
G|-4-4--------------5-5--------------9-9--------------7-7--------------| 
G|-2----------------3----------------7----------------5----------------| 
G|---------------------------------------------------------------------| 

Play Riff 4 x2   "Yes, you're the only one..." 

Riff 5   "I'm so far gone..." 
C|-----------------------------------------------------------------| 
G|-----------------------------------------------------------------| 
F|-----------------------------------------------------------------| 
C|-4-4-4-4-4-4-4-4-4-4-4-4-4-4-4-4-5-5-5-5-5-5-5-5-5-5-5-5-5-5-7-7-| 
G|-2-2-2-2-2-2-2-2-2-2-2-2-2-2-2-2-3-3-3-3-3-3-3-3-3-3-3-3-3-3-5-5-| 
G|-2-2-2-2-2-2-2-2-2-2-2-2-2-2-2-2-3-3-3-3-3-3-3-3-3-3-3-3-3-3-5-5-| 

C|------------------------------------------------------------------| 
G|------------------------------------------------------------------| 
F|------------------------------------------------------------------| 
C|-9-9-9-9-9-9-9-9-9-9-9-9-9-9-9/11-7-7-7-7-7-7-7-7-7-7-7-7-7-7-7-7-| 
G|-7-7-7-7-7-7-7-7-7-7-7-7-7-7-7/9--5-5-5-5-5-5-5-5-5-5-5-5-5-5-5-5-| 
G|-7-7-7-7-7-7-7-7-7-7-7-7-7-7-7/9--5-5-5-5-5-5-5-5-5-5-5-5-5-5-5-5-| 

C|-----------------------------------------------------------------| 
G|-----------------------------------------------------------------| 
F|-----------------------------------------------------------------| 
C|-4-4-4-4-4-4-4-4-4-4-4-4-4-4-4-4-5-5-5-5-5-5-5-5-5-5-5-5-5-5-7-7-| 
G|-2-2-2-2-2-2-2-2-2-2-2-2-2-2-2-2-3-3-3-3-3-3-3-3-3-3-3-3-3-3-5-5-| 
G|-2-2-2-2-2-2-2-2-2-2-2-2-2-2-2-2-3-3-3-3-3-3-3-3-3-3-3-3-3-3-5-5-| 

C|---------------------------------------------------------------| 
G|---------------------------------------------------------------| 
F|---------------------------------------------------------------| 
C|-9-9-9-9-9-9-9-9-9-9-9-9-9-9-9/11-7--7--7----7--7--7---7-7-7-7-| 
G|-7-7-7-7-7-7-7-7-7-7-7-7-7-7-7/9--5--5--5----5--5--5---5-5-5-5-| 
G|-7-7-7-7-7-7-7-7-7-7-7-7-7-7-7/9--5--5--5----5--5--5---5-5-5-5-| 

Play Riff 3 x4   "Shame, as I was coming undone..." 
Play Riff 1 x2 


Enjoy!! 
		  

See also:

tabs Slipknot - Duality(ver 2) tabs Slipknot - Surfacing tabs Rainbow - Long Live Rock N' Roll tabs Dream Theater - As I Am tabs Pantera - Hollow tabs Slipknot - The Blister Exists
e-chords

Other versions:

tabs Sevendust - Life Deceives You
auto scroll beats size up size down change color hide chords drawings
tab show chords e-chords YouTube Clip e-chords hide all tabs e-chords go to top tab

share