Sevendust

Disgrace

Sevendust

tabs

by  ALYSLIMA

save to print version add songbook text version e-mail correct tuner
chordsukulelecavacokeyboardtabbassdrumsharmonicaflute Guitar Pro
close

there isn't a video lesson for this song

chords

Disgrace

	  		

Riff 1 (clean w/ slight phaser) 
C#|-----------------------------------------------| 
 B|-----------------------------------------------| 
F#|---9---9---12/14-12---10-10---9---9---12/14-12-| 
C#|---x---x---x--x--x----x--x----x---x---x--x--x--| 
G#|-0-7-0-7-0-10/12-10-0-8--8--0-7-0-7-0-10/12-10-| 
C#|-0---0---0----------0-------0---0---0----------| 
    *   *   *          *       *   *   * 

Play Riff 1 x2 

Riff 2 (distortion) 
C#|----------------------------| 
 B|----------------------------| 
F#|---9---9---12/14-12---10-10-| 
C#|---x---x---x--x--x----x--x--| 
G#|-0-7-0-7-0-10-12-10-0-8--8--| 
C#|-0---0---0----------0-------| 
                    ^ end here final time 

Play Riff 2 x4 
Play Riff 1 x4   "I remember almost every time I felt love..." 

Riff 3   "Weighing down my soul..." 
C#|-----0---0---0---------0---------0-----0---0---0---------0---------0-| 
 B|-------------------------0-----------2---0-----------------0---------| 
F#|---7---5---3---2---0h2-----2b3r2-------------3---2---0h2-----2b3r2---| 
C#|---------------------------------------------------------------------| 
G#|---------------------------------------------------3-----------------| 
C#|-8---------------5-----------------3---------------------------------| 

Play Riff 3 x1.5   "The thought of it's too much..." 

Fill 1 
C#|--------------------------------------------------------------| 
 B|--------------------------------------------------------------| 
F#|---10---10---10---10--------10/12---12---12/14---14--14-14-14-| 
C#|---x----x----x----x--x-x----x--x----x----x--x----x---x--x--x--| 
G#|-0-8--0-8--0-8--0-8--x-x--0-8//10-0-10-0-10/12-0-12--12-12-12-| 
C#|-0----0----0----0----x-x--0-------0----0-------0--------------| 

Riff 4   "Can I still find a place..." (just the chords) 
C#|-0-----0----0----0----0-----0----| 
 B|-0-----0----0----0----0-----0----| 
F#|-10----7----5----0----10----7----| 
C#|-8-----5----3----5----8-----5----| 
G#|-8-----5----3----3----8-----5----| 
C#|-8-----5----3----2----8-----5----| 

Play Fill 1 x1   (basically is played the same just without those x-x-x string chugs and the beginning 
                  bit gets extended and played one extra time) 
Play Riff 1 x4   "And I know now..." 
                  (add in subtle string chugs at the end of the riff each time) 
Play Riff 3 x1.5 "Weighing down my soul..." 
Play Fill 1 x1 
Play Riff 4 x1   "Can I still find a place..." 
Play Fill 1 x1   (see above note for Fill 1 as it's the same thing here) 

Fill 2 (clean w/ phaser) 
C#|------------------------------------------| 
 B|------------------------------------------| 
F#|---9---9---9---9-----------9-9---9-9---9~-| 
C#|---x---x---x---x-----10\---x-x---x-x---x--| 
G#|-0-7-0-7-0-7-0-7-7/8-----0-7-7-0-7-7-0-7~-| 
C#|-0---0---0---0-----------0-----0-----0----| 

Riff 5   "Weighing down my soul..." 
C#|----------------------------------| 
 B|----------------------------------| 
F#|---10---10---9---10/12---12/14-14-| 
C#|---x----x----x---x--x----x--x--x--| x3 
G#|-0-8--0-8--0-7-0-8//10-0-10/12-12-| 
C#|-0----0----0---0-------0----------| 

C#|-------------------------| 
 B|-------------------------| 
F#|---10---10---9---9-------| 
C#|---x----x----x---x-------| 
G#|-0-8--0-8--0-7-0-7-0-0-0-| 
C#|-0----0----0---0---0-0-0-| 
                      * * * 

Fill 3 (clean w/ phaser, let all notes ring out) 
C#|-----0---0---0---------0-| 
 B|---------------------0---| 
F#|---7---5---3---2---2-----| 
C#|-------------------------| 
G#|-------------------------| 
C#|-8---------------5-------| 

Play Riff 4 x1   "Can I still find a place..." 

Riff 4 cont'd   "On and on..." (just the chords) 
C#|-0----0----| 
 B|-0----0----| 
F#|-2----0----| 
C#|-0----5----| 
G#|-0----3----| 
C#|-0----2----| 

Play Riff 4 x1   "Can I still find a place..." 

Ending   "On and on..." (let all notes ring out) 
C#|-------------0-----------------0-------0-| 
 B|----------------0------------------------| 
F#|--------------------------9/10---10/12---| 
C#|--------------------------x-x----x--x----| 
G#|-5-5-5-5-0----------------7/8----8//10---| 
C#|-5-5-5-5-0---------(0)(0)----------------| 
    * * * * 

C#|---0----------------0-------0---0-------------------| 
 B|------0----------------------------0----------------| 
F#|---------------9/10---10/12-----------10/12--10--9--| 
C#|---------------x-x----x--x------------x--x---x---x--| 
G#|---------------7/8----8//10-----------8//10--8---7--| 
C#|-0------(0)(0)----------------0---------------------| 

Enjoy!! 
		  

See also:

tabs Slipknot - Duality(ver 2) tabs Slipknot - Surfacing tabs Rainbow - Long Live Rock N' Roll tabs Dream Theater - As I Am tabs Pantera - Hollow tabs Slipknot - The Blister Exists
e-chords

Other versions:

tabs Sevendust - Disgrace
auto scroll beats size up size down change color hide chords drawings
tab show chords e-chords YouTube Clip e-chords hide all tabs e-chords go to top tab

share