Serj Tankian

Reality Tv

Serj Tankian

tabs

by  EDSOOLIVEIRA

save to print version add songbook text version e-mail correct tuner
chordsukulelecavacokeyboardtabbassdrumsharmonicaflute Guitar Pro
close

there isn't a video lesson for this song

chords

Reality Tv

	  		

Tuning: Drop C 

Intro/Verse 
d|---------------------------------------------------------------------------|  
a|-7------------7----9-----10--12----9------------7-9--9-10-----9-----7------| 
f|-------7-------------------------------------------------------------------|  
c|---------------------------------------------------------------------------| 
g|---------------------------------------------------------------------------| 
c|---------------------------------------------------------------------------| 

d|---------------------------------------------------------------------------| and so on 
a|-3-----5-----7-----10-----9---7---6---7--9---------------------------6-----| 
f|---------------------------------------------------------------------------| 
c|---------------------------------------------------------------------------| 
g|---------------------------------------------------------------------------| 
c|---------------------------------------------------------------------------| 

Before Chorus 
d|---------------------------------------------------------------------------|  
a|-3-----5-----7-----10-----9---7---6---7--9---------------------------------| 
f|---------------------------------------------------------------------------| 
c|---------------------------------------------------------------------------| 
g|-----------------------------------------------------------0---4---5---7---|  
c|---------------------------------------------------------------------------| 

Chorus 
d|---------------------------------------------------------------------------| 
a|---------------------------------------------------------------------------| 
f|---------------------------------------------------------------------------| 
c|---------------------------------------------------------------------------| 
g|-0-0-0-0-0-0-0-0-10-10-10-10-10-10-10-10-8-8-8-8-8-8-8-8\5-5-5-5/7-7-7-7---| 
c|-0-0-0-0-0-0-0-0-10-10-10-10-10-10-10-10-8-8-8-8-8-8-8-8\5-5-5-5/7-7-7-7---| 

Bridge 
d|---------------------------------------------------------------------------| x3 
a|---------------------------------------------------------------------------| 
f|---------------------------------------------------------------------------| 
c|---------------------------------------------------------------------------| 
g|-12-12-12-12-11-11-11-11\3-3-3-3/5-5-5-5-7-7-7-7-7-7-7-7-0-0-0-0-0-0-0-0---| 
c|-12-12-12-12-11-11-11-11\3-3-3-3/5-5-5-5-7-7-7-7-7-7-7-7-0-0-0-0-0-0-0-0---|  

d|---------------------------------------------------------------------------| x4 
a|---------------------------------------------------------------------------| 
f|---------------------------------------------------------------------------| 
c|------------------------------------------7-8-5-7-3-5-2-3------------------| 
c|-0-0---0-0-----7-----0-0---0-0-----7----------------------5-7-4-5-1-3-0----| 
c|-0-0---0-0-----7-----0-0---0-0-----7---------------------------------------| 

d|---------------------------------------------------------------------------| 
a|---------------------------------------------------------------------------| 
f|---------------------------------------------------------------------------| 
c|-7-------------------------------------------------------------------------| 
g|-5-------------------------------------------------------------------------| 
c|-0-------------------------------------------------------------------------| 


************************************ 

| /   slide up 
| \   slide down 
| h   hammer-on 
| p   pull-off 
| ~   vibrato 
| +   harmonic 
| x   Mute note 
| b   Bend 
| pb  Pre-bend 
| br  Bend release 
| pbr Pre-bend release 
| brb Bend release bend 

************************************ 
		  

Full key step upFull key step up
Half key step upHalf key step up
Half key step downHalf key step down
Full key step downFull key step down
hide glossary

See also:

tabs Linkin Park - One Step Closer tabs Evanescence - My Immortal tabs Linkin Park - In the end tabs From First To Last - Emily tabs Linkin Park - In The End (intr piano) tabs Korn - Freak On A Leash
e-chords

Other versions:

tabs Serj Tankian - Reality Tv
auto scroll beats size up size down change color hide chords drawings
tab show chords e-chords YouTube Clip e-chords hide all tabs e-chords go to top tab

share