Serj Tankian

Beethoven's C

Serj Tankian

tabs Beginner beginner

by  IRONPOWER4EVER

save to print version add songbook text version e-mail correct tuner
chordsukulelecavacokeyboardtabbassdrumsharmonicaflute Guitar Pro
close

there isn't a video lesson for this song

chords

Beethoven's C

	  		DROP C TUNING! 

-------------------|-------------|-----------------|---------------| 
-------------------|-------------|-----------------|---------------| 
-------------------|-------------|-----------------|---------------| 
-------------------|-------------|-----1-3-1-------|----1-3-1-----0| 
-------------------|-------------|-1-3-------3-1---|-1-3------3-1-0| 
-1-3-1-3-1-3-1-3-1-3-1-3-1-3-1-3-|---------------3-|--------------0| 

-------------------|-------------------| 
-------------------|-------------------| 
-------------------|-------------------| 
-2--3--0-----------|-2--3--0-----------| 
-2--3--0-----------|-2--3--0-----------| 
-2--3--0--------12\|-2--3--0--------12\| 
"...on your shoulders...oceans are combined" 

.......PM..................PM........... 
-------------------|-------------------| 
-------------------|-------------------| 
-------------------|-------------------| 
-0-0-000--7-7-777--|-8-8-8-8---1-1-1-1-| X2 
-0-0-000--7-7-777--|-8-8-8-8---1-1-1-1-| 
-0-0-000--7-7-777--|-8-8-8-8---1-1-1-1-| 
"Being that i love you so much..." 

............PM.............. 
----------------------------| 
----------------------------| 
----------------------------| 
-0----0----0----3----3----3-|x2 
-0----0----0----3----3----3-| 
-0----0----0----3----3----3-| 
                            | 
                            | 
----------------------------| 
----------------------------| 
----------------------------|x2 
----------------------------| 
----------------------------| 
-7-9-7-9-7-9-8-10-8-10-8-10-| 
"find the evil little perpetrator..." 

                   ...............PM............ realese PM 
-------------------|-----------------|---------|-------| 
-------------------|-----------------|---------|-------| 
-------------------|-----------------|---------|-------| 
-0--0-3--0--0-3----|-----------------|---------|-------| 
-0--0-3--0--0-3----|-----------------|---------|-------| 
-0--0-3--0--0-3----|-4-6-4-6-4-6-4-6-|-7-9-7-9-|7-9-7--| 
"you want it all...love is not about the profits..." 

------------| 
------------| 
------------| 
-5--3--2--0-| X4 
-5--3--2--0-| 
-5--3--2--0-| 
"the arms of time..." 

--------------------|---------------| 
--------------------|---------------| 
--------------------|---------------| 
--------------------|-------------0-| 
--------------------|-------------0-| 
-1-3-1-3-1-3-1-3-1-3|-1-3-1-3-1-3-0-| 
"do you beleive...............in me" 

-------------------|-------------------| 
-------------------|-------------------| 
-------------------|-------------------| 
-2--3--0-----------|-2--3--0-----------| 
-2--3--0-----------|-2--3--0-----------| 
-2--3--0--------12\|-2--3--0--------12\| 
"...but i don't mind....but i can't find" 

.......PM..................PM........... 
-------------------|-------------------| 
-------------------|-------------------| 
-------------------|-------------------| 
-0-0-000--7-7-777--|-8-8-8-8---1-1-1-1-| X2 
-0-0-000--7-7-777--|-8-8-8-8---1-1-1-1-| 
-0-0-000--7-7-777--|-8-8-8-8---1-1-1-1-| 
"Being that i love you so much..." 

............PM.............. 
----------------------------| 
----------------------------| 
----------------------------| 
-0----0----0----3----3----3-|x2 
-0----0----0----3----3----3-| 
-0----0----0----3----3----3-| 
                            | 
                            | 
----------------------------| 
----------------------------| 
----------------------------|x2 
----------------------------| 
----------------------------| 
-7-9-7-9-7-9-8-10-8-10-8-10-| 
"find the evil little perpetrator..." 

                   ...............PM............ realese PM 
-------------------|-----------------|---------|-------| 
-------------------|-----------------|---------|-------| 
-------------------|-----------------|---------|-------| 
-0--0-3---0--0-3---|-----------------|---------|-------| 
-0--0-3---0--0-3---|-----------------|---------|-------| 
-0--0-3---0--0-3---|-4-6-4-6-4-6-4-6-|-7-9-7-9-|7-9-7--| 
"you want it all...love is not about the profits..." 

------------| 
------------| 
------------| 
-5--3--2--0-| X4 
-5--3--2--0-| 
-5--3--2--0-| 
"the arms of time..." 

--------------------|---------------| 
--------------------|---------------| 
--------------------|---------------| 
--------------------|-------------0-| 
--------------------|-------------0-| 
-1-3-1-3-1-3-1-3-1-3|-1-3-1-3-1-3-0-| 
"do you beleive...............in me" 

solo 
-10-------12-------13-------15--13-12--13-12-| 
----10-10----10-10----10-10------------------| 
---------------------------------------------| 
---------------------------------------------| X2 
---------------------------------------------| 
---------------------------------------------| 

---------------| 
---------------| 
---------------| 
-0---8---5---3-| x2 
-0---8---5---3-| 
-0---8---5---3-| 
"but letely i've been blind..." 


Solo de fundo 
-10-x8--12-x8--13-x8-15--13-12--13-12-| 
--------------------------------------| 
--------------------------------------| 
--------------------------------------| 
--------------------------------------| 
--------------------------------------| 
"you left me here to die..." 


-10-x8--12-x8--13-x8-15-x16-| 
----------------------------| 
----------------------------| 
----------------------------| 
----------------------------| 
----------------------------| 
"...left in time" 

------------| 
------------| 
------------| 
-5--3--2--0-| X4 
-5--3--2--0-| 
-5--3--2--0-| 
"the arms of time..." 

-------------------|-------------|-----------------|---------------| 
-------------------|-------------|-----------------|---------------| 
-------------------|-------------|-----------------|---------------| 
-------------------|-------------|-----1-3-1-------|----1-3-1-----0| 
-------------------|-------------|-1-3-------3-1---|-1-3------3-1-0| 
-1-3-1-3-1-3-1-3-1-3-1-3-1-3-1-3-|---------------3-|--------------0| 
".......................................................in nothing!" 

Piano: 
"But lately I've been blind 
Leave me all alone, left in time". 
		  

Full key step upFull key step up
Half key step upHalf key step up
Half key step downHalf key step down
Full key step downFull key step down
hide glossary

See also:

tabs System Of A Down - Toxicity(intro) tabs System Of A Down - Revenga tabs From First To Last - Emily tabs System Of A Down - Radio Video tabs Evanescence - My Immortal tabs System Of A Down - Roulette (afinação padrão)
e-chords

Other versions:

tabs Serj Tankian - Beethoven's C
auto scroll beats size up size down change color hide chords drawings
tab show chords e-chords YouTube Clip e-chords hide all tabs e-chords go to top tab

share