save to print version add songbook text version e-mail correct tuner
chordsukulelecavacokeyboardtabbassdrumsharmonicaflute Guitar Pro
close

there isn't a video lesson for this song

chords

Cry

	  		Band: Big Life  


 Tune 1/2 Step Down (Eb Ab Db Gb Bb Eb) 


Intro: {1} {1} (let last chord ring for intro) 
Verse: {1} {2} {1} {3} 
PreChorus: {3}{3}{3} F F G G  
Chorus: {1} {3} (picking pattern slightly different, 
		 however, improv sounds just as good 
		 and is recommended) 
Solo: {4} 
Last PreChorus: {5} 
Last Chorus: {6} 

 {1} 
---------0-----------------------0------------------- 
-------3----------5------------3---3----------0------ 
-----0----------0---0--------2-------2------2---2---- 
---2----------4-------4----3--------------2-------2-- 
-0----------2---------------------------------------- 
-------------------------1--------------0------------ 

 {2} 
---------0------------------------0----------------0------ 
-------3----------5-------------3---3------------3---3---- 
-----0----------0---0---------0-------0--------0-------0-- 
---2----------4-------4-----2-----------2----4------------ 
-0----------2-------------3----------------5-------------- 
---------------------------------------------------------- 

 {3} 
---------------------------------------0---------- 
---------1--------------3------------3---3-------- 
-------2---2----------0---0--------0-------0------ 
-----3-------3------0-------0----2-----------2---- 
---3--------------2------------0---------------0-- 
-1--------------3--------------------------------- 

 {4} 
----------------------------------s12--7-8----8--- 
-------------------------------------------10---8- 
-s9--9p7-5-7-5------------5----------------------- 
---------------7------5-----7--------------------- 
--------------------7---7------------------------- 
-------------------------------------------------- 

---------8---------10--8--------------8-s12-10-8-10-8--- 
-10-8-10---10-8-10------10----10-8-10-----------------8- 
-------------------------------------------------------- 
-------------------------------------------------------- 
-------------------------------------------------------- 
-------------------------------------------------------- 

-s17--17-15----------------------------------- 
------------17-15----------------------------- 
------------------17-16-14-------------------- 
---------------------------17-14-------------- 
---------------------------------17-15-14-12-- 
---------------------------------------------- 

 {5} 
---------------------------------------------- 
---------------------------------------------- 
---------------------------------------------- 
-3--5---------3--5--7----3--5--------3--5----- 
-1--3--7--8---1--3--5----1--3--7--8--1--3--5-- 
-------5--6--------------------5--6--------3-- 

 {6} 
-----------------------  
-----------------------   Strumming pattern for first A and F go something like; 
----------------------- ------------------ 
----------------------- ------------------ listen to song to get it down. 
-7------3-----3--5--7-- ------------------ 
-5------1-----1--3--5-- -X X X X  X  X  X- 
"crrryyeee" 

_______________animelyrics.com________________________________________________________ 

Tooku kikoeru   Omae no koe wa 
Kinou no   Ano yume no naka 
Kawari wa shinai   Yakusoku dake ga 
Kasukani hibiku 

Owari no nai   Tabi o tsuzukete 
Ushinai kaketa   Kokoro o sagasu 
Mabushi sugiru   Ashita mitsumete 
Aruite yukou 

* I'm dreaming, shizukani 
  I'm dreaming, toki ga nagareru 
  I'm dreaming, ashita wa 
  Woah...  doko e yukeba ii? 

And you cry ..... tonight 
Don't you cry ... good night 

Nanimo iwazu   Nagareru ase o 
Nuguwazu   Aruki tsuzukeru 
Fukitsukete kuru   Kawaita kaze ni 
Sakarai nagara 

* repeat 

Kitto   Omae ni mo todoku darou 
Ore no   Kono koe ga 
Itsuka wa   Omae ni mo wakaru darou 
Nigeru   Basho nado nai koto ni 

And you cry, yeah, cry tonight 
Don't you cry ... good night 

** Kawari wa shinai   Yakusoku dake ga 
   Kasukani hibiku, cry 

Tadoritsuke wa shinai   Naki sakebu hodo ni 
Oi kaketemo nanimo kamo kiete ku 

** repeat 
		  

Full key step upFull key step up
Half key step upHalf key step up
Half key step downHalf key step down
Full key step downFull key step down
hide glossary

See also:

tabs Games - Street Fighter II - Tema Do Ryu (guitarra) tabs The Silent Comedy - Bartholomew tabs Seriados e Desenhos - Pantera cor de rosa (desenho) tabs Games - World Of Warcraft - Arthas, My Son tabs Fink - Warm Shadow tabs Fidlar - Cocaine
e-chords

Other versions:

tabs James Blunt - Cry tabs Seriados e Desenhos - Cry tabs Faith Hill - Cry ( Better Version) tabs Sean Paul - Cry baby cry/solo tabs Marty Stuart - Cry Cry Cry tabs The Beatles - Cry For A Shadow
auto scroll beats size up size down change color hide chords drawings
tab show chords e-chords YouTube Clip e-chords hide all tabs e-chords go to top tab

share