Sepultura

home > Sepultura

Bestial Devastation Tab

Sepultura

Difficulty: nolevelnolevel

by VELHO

tuner correct add songbook print version text version save to e-mail
chordsukulelecavacokeyboardtabbassdrumsharmonicsflute Guitar Pro
chords

Bestial Devastation

  		Tune down 1 step (D,G,C,F,A,D) then slighty up (It is off tune)  

   Intro                                               Verse 
1||-----|-----||------------------|------------------||------------------|-----------------|| 
2||-----|-----||------------------|------------------||------------------|-----------------|| 
3||-----|-----||------------------|------------------||------------------|-----------------|| 
4||-----|-3---||------------------|------------------||------------------|-3---------------|| 
5||-2---|-1---||-7777777777777777-|------------------||---------3--------|-1-------3---3---|| 
6||-0---|-----||------------------|-7777777788888888-||-000000001-000000-|---0000001---1---|| 

   Fill 1                                 Fill 2 
1||------------------|------------------||------------------|------------------|| 
2||------------------|------------------||------------------|------------------|| 
3||------------------|------------------||------------------|------------------|| 
4||------------------|------------------||------------------|------------------|| 
5||-11111111------22-|-11111111---------||-5555555566666666-|------------------|| 
6||---------222222---|---------22222222-||------------------|-6666666655555555-|| 
  
   Slower                                      1st ending         2nd ending 
1||-----|-----||-----------------|-----|-----||-----------------||-----------------|| 
2||-----|-----||-----------------|-----|-----||-----------------||-----------------|| 
3||-----|-----||-----------------|--|--||-----------------||-----------------|| 
4||-----|-3---||-----------------|-----|-----||-----------------||-----------------|| 
5||-2---|-1---||-2-2-2-2-2-2-2-2-|-----|-----||-2-2-2-2-8---7---||-2-2-2-2-3---5---|| 
6||-0---|-----||-0-0-0-0-0-0-0-0-|-----|-----||-0-0-0-0-6---5---||-0-0-0-0-1---3---|| 

                                        Solo 
1||-----------------|-----------------||------------------|------------------|| 
2||-----------------|-----------------||------------------|------------------|| 
3||-----------------|-----------------||------------------|------------------|| 
4||-----------------|-----------------||------------------|------------------|| 
5||-2---2---2---2---|-2---2---2---2---||------------------|------------------|| 
6||-0---0---0---0---|-0---0---0---0---||-3333333333333333-|-4444444411111111-|| 

                                          Ending 
1||------------------|------------------||-----|------------------|-----------------|---|| 
2||------------------|------------------||-----|------------------|-----------------|---|| 
3||------------------|------------------||-----|------------------|-----------------|---|| 
4||------------------|------------------||-----|------------------|-3---------------|---|| 
5||-3333333333333333-|-4444444411111111-||-2---|---------3--------|-1-------3---3---|-2-|| 
6||------------------|------------------||-0---|-000000001-000000-|---0000001---1---|-0=|| 
	  

Full key step upFull key step up
Half key step upHalf key step up
Half key step downHalf key step down
Full key step downFull key step down
Search Paypal
auto scroll beats size up size down change color hide chords drawings
tab show chords e-chords YouTube Clip e-chords hide all tabs e-chords go to top tab