Senses Fail

Holy Mountain

Senses Fail

tabs

by  PAULANTUNES

save to print version add songbook text version e-mail correct tuner
chordsukulelecavacokeyboardtabbassdrumsharmonicaflute Guitar Pro
close

there isn't a video lesson for this song

chords

Holy Mountain

	  		
Intro/verse 1 
D|--------------------------------------------------------------------------------------------------------| 
B|--------------------------------------------------------------------------------------------------------| 
F|--------------------------------------------------------------------------------------------------------| 
C|--------------------------------------------------------------------------------------------------------| 
G|--------------------------------------------------------------------------------------------------------| 
C|-12--0--0--10--12--0--0--10--12--0--0--10--13--12--10--13-----------------------------------------------| x3 

D|--------------------------------------------------------------------------------------------------------| 
B|--------------------------------------------------------------------------------------------------------| 
F|--------------------------------------------------------------------------------------------------------| 
C|--5--5--5--5--5--5--5--5--5--4--4--4--4--4--4--4--------------------------------------------------------| 
G|--5--5--5--5--5--5--5--5--5--4--4--4--4--4--4--4--------------------------------------------------------| 
C|--5--5--5--5--5--5--5--5--5--4--4--4--4--4--4--4--------------------------------------------------------| 

D|--------------------------------------------------------------------------------------------------------| 
B|--------------------------------------------------------------------------------------------------------| 
F|--------------------------------------------------------------------------------------------------------| 
C|--------------------------------------------------------------------------------------------------------| 
G|--------------------------------------------------------------------------------------------------------| 
C|-12--0--0--10--12--0--0--10--12--0--0--10--13--12--10--13-----------------------------------------------| x3 

D|--------------------------------------------------------------------------------------------------------| 
B|--------------------------------------------------------------------------------------------------------| 
F|--------------------------------------------------------------------------------------------------------| 
C|--5--5--5--5--5--5--5--5--5--4--4--4--4--4--4--4--------------------------------------------------------| 
G|--5--5--5--5--5--5--5--5--5--4--4--4--4--4--4--4--------------------------------------------------------| 
C|--5--5--5--5--5--5--5--5--5--4--4--4--4--4--4--4--------------------------------------------------------| 

D|--------------------------------------------------------------------------------------------------------| 
B|--------------------------------------------------------------------------------------------------------| 
F|--------------------------------------------------------------------------------------------------------| 
C|--------------------------------------------------------------------------------------------------------| 
G|--------------------------------------------------------------------------------------------------------| 
C|-12--0--0--10--12--0--0--10--12--0--0--10--13--12--10--13-----------------------------------------------| x3 

D|--------------------------------------------------------------------------------------------------------| 
B|--------------------------------------------------------------------------------------------------------| 
F|--------------------------------------------------------------------------------------------------------| 
C|--5--5--5--5--5--5--5--5--5--4--4--4--4--4--4--4--------------------------------------------------------| 
G|--5--5--5--5--5--5--5--5--5--4--4--4--4--4--4--4--------------------------------------------------------| 
C|--5--5--5--5--5--5--5--5--5--4--4--4--4--4--4--4--------------------------------------------------------| 

Pre-Chorus 
D|--------------------------------------------------------------------------------------------------------| 
B|--------------------------------------------------------------------------------------------------------| 
F|--------------------------------------------------------------------------------------------------------| 
C|--------------------------------------------------------------------------------------------------------| 
G|--------------------------------------------------------------------------------------------------------| 
C|-1--0--0--1--0--0--1--0--1--0--0--1--0--0--1--0--1--0--0--1--0--0--1--0--1--0--0--1--0--0--1------------| 

Chorus 
D|--------------------------------------------------------------------------------------------------------| 
B|--------------------------------------------------------------------------------------------------------| 
F|--------------------------------------------------------------------------------------------------------| 
C|-3---3---3-3------------3-3---3---3-3------------3---3---3-3------3-3---3---3-3-------------------------| 
G|-3---3---3-3------------3-3---3---3-3------------3---3---3-3------3-3---3---3-3-------------------------| 
C|-3---3---3-3------------3-3---3---3-3------------3---3---3-3------3-3---3---3-3-------------------------| 

D|--------------------------------------------------------------------------------------------------------| 
B|--------------------------------------------------------------------------------------------------------| 
F|--------------------------------------------------------------------------------------------------------| 
C|-0---0---0-0------------0-0---0---0-0------------0---0---0-0------0-0---0---0-0-------------------------| 
G|-0---0---0-0------------0-0---0---0-0------------0---0---0-0------0-0---0---0-0-------------------------| 
C|-0---0---0-0------------0-0---0---0-0------------0---0---0-0------0-0---0---0-0-------------------------| 

D|--------------------------------------------------------------------------------------------------------| 
B|--------------------------------------------------------------------------------------------------------| 
F|--------------------------------------------------------------------------------------------------------| 
C|-3---3---3-3------------3-3---3---3-3------------3---3---3-3------3-3---3---3-3-------------------------| 
G|-3---3---3-3------------3-3---3---3-3------------3---3---3-3------3-3---3---3-3-------------------------| 
C|-3---3---3-3------------3-3---3---3-3------------3---3---3-3------3-3---3---3-3-------------------------| 

D|--------------------------------------------------------------------------------------------------------| 
B|--------------------------------------------------------------------------------------------------------| 
F|--------------------------------------------------------------------------------------------------------| 
C|-0---0---0-0------------0-0---0---0-0------------8---8---8-8------8-8---8---8-8-------------------------| 
G|-0---0---0-0------------0-0---0---0-0------------8---8---8-8------8-8---8---8-8-------------------------| 
C|-0---0---0-0------------0-0---0---0-0------------8---8---8-8------8-8---8---8-8-------------------------| 

verse 2 
D|--------------------------------------------------------------------------------------------------------| 
B|--------------------------------------------------------------------------------------------------------| 
F|--------------------------------------------------------------------------------------------------------| 
C|--------------------------------------------------------------------------------------------------------| 
G|--------------------------------------------------------------------------------------------------------| 
C|-12--0--0--10--12--0--0--10--12--0--0--10--13--12--10--13-----------------------------------------------| x4 

D|--------------------------------------------------------------------------------------------------------| 
B|--------------------------------------------------------------------------------------------------------| 
F|--------------------------------------------------------------------------------------------------------| 
C|--5--5--5--5--5--5--5--5--5--4--4--4--4--4--4--4--------------------------------------------------------| 
G|--5--5--5--5--5--5--5--5--5--4--4--4--4--4--4--4--------------------------------------------------------| 
C|--5--5--5--5--5--5--5--5--5--4--4--4--4--4--4--4--------------------------------------------------------| 

D|--------------------------------------------------------------------------------------------------------| 
B|--------------------------------------------------------------------------------------------------------| 
F|--------------------------------------------------------------------------------------------------------| 
C|--------------------------------------------------------------------------------------------------------| 
G|--------------------------------------------------------------------------------------------------------| 
C|-12--0--0--10--12--0--0--10--12--0--0--10--13--12--10--13-----------------------------------------------| x3 

D|--------------------------------------------------------------------------------------------------------| 
B|--------------------------------------------------------------------------------------------------------| 
F|--------------------------------------------------------------------------------------------------------| 
C|--5--5--5--5--5--5--5--5--5--4--4--4--4--4--4--4--------------------------------------------------------| 
G|--5--5--5--5--5--5--5--5--5--4--4--4--4--4--4--4--------------------------------------------------------| 
C|--5--5--5--5--5--5--5--5--5--4--4--4--4--4--4--4--------------------------------------------------------| 

Pre-Chorus 
D|--------------------------------------------------------------------------------------------------------| 
B|--------------------------------------------------------------------------------------------------------| 
F|--------------------------------------------------------------------------------------------------------| 
C|--------------------------------------------------------------------------------------------------------| 
G|--------------------------------------------------------------------------------------------------------| 
C|-1--0--0--1--0--0--1--0--1--0--0--1--0--0--1------------------------------------------------------------| 

D|--------------------------------------------------------------------------------------------------------| 
B|--------------------------------------------------------------------------------------------------------| 
F|--------------------------------------------------------------------------------------------------------| 
C|--------------------------------------------------------------------------------------------------------| 
G|--------------------------------------------------------------------------------------------------------| 
C|-1--0--0--1--0--0--1--0--1--0--0--1--0--0--1--0--1--0--0--1--0--0--1--0--1--0--0--0--0--0---------------| 

Chorus 
D|--------------------------------------------------------------------------------------------------------| 
B|--------------------------------------------------------------------------------------------------------| 
F|--------------------------------------------------------------------------------------------------------| 
C|-3---3---3-3------------3-3---3---3-3------------3---3---3-3------3-3---3---3-3-------------------------| 
G|-3---3---3-3------------3-3---3---3-3------------3---3---3-3------3-3---3---3-3-------------------------| 
C|-3---3---3-3------------3-3---3---3-3------------3---3---3-3------3-3---3---3-3-------------------------| 

D|--------------------------------------------------------------------------------------------------------| 
B|--------------------------------------------------------------------------------------------------------| 
F|--------------------------------------------------------------------------------------------------------| 
C|-0---0---0-0------------0-0---0---0-0------------0---0---0-0------0-0---0---0-0-------------------------| 
G|-0---0---0-0------------0-0---0---0-0------------0---0---0-0------0-0---0---0-0-------------------------| 
C|-0---0---0-0------------0-0---0---0-0------------0---0---0-0------0-0---0---0-0-------------------------| 

D|--------------------------------------------------------------------------------------------------------| 
B|--------------------------------------------------------------------------------------------------------| 
F|--------------------------------------------------------------------------------------------------------| 
C|-3---3---3-3------------3-3---3---3-3------------3---3---3-3------3-3---3---3-3-------------------------| 
G|-3---3---3-3------------3-3---3---3-3------------3---3---3-3------3-3---3---3-3-------------------------| 
C|-3---3---3-3------------3-3---3---3-3------------3---3---3-3------3-3---3---3-3-------------------------| 

D|--------------------------------------------------------------------------------------------------------| 
B|--------------------------------------------------------------------------------------------------------| 
F|--------------------------------------------------------------------------------------------------------| 
C|-0---0---0-0------------0-0---0---0-0------------8---8---8-8------8-8---8---8-8-------------------------| 
G|-0---0---0-0------------0-0---0---0-0------------8---8---8-8------8-8---8---8-8-------------------------| 
C|-0---0---0-0------------0-0---0---0-0------------8---8---8-8------8-8---8---8-8-------------------------| 

Post-Chorus 
D|--------------------------------------------------------------------------------------------------------| 
B|--------------------------------------------------------------------------------------------------------| 
F|--------------------------------------------------------------------------------------------------------| 
C|-10--10--10--10--10--10--11--11--11--11--11--11---------------------------------------------------------| 
G|-10--10--10--10--10--10--11--11--11--11--11--11---------------------------------------------------------| 
C|-10--10--10--10--10--10--11--11--11--11--11--11---------------------------------------------------------| 

D|--------------------------------------------------------------------------------------------------------| 
B|--------------------------------------------------------------------------------------------------------| 
F|--------------------------------------------------------------------------------------------------------| 
C|--------------------------------------------------------------------------------------------------------| 
G|-0--0----0----0--0-----------0--0----0----0--0-----------0--0----0----0--0-----------0--0----0----0--0--| 
C|-0--0----0----0--0-----------0--0----0----0--0-----------0--0----0----0--0-----------0--0----0----0--0--| 
   X  X    X    X  X           X  X    X    X  X           X  X    X    X  X           X  X    X    X  X 

Bridge 
D|--------------------------------------------------------------------------------------------------------| 
B|--------------------------------------------------------------------------------------------------------| 
F|--------------------------------------------------------------------------------------------------------| 
C|--------------------------------------------------------------------------------------------------------| 
G|--------------------------------------------------------------------------------------------------------| 
C|-1--0------------1------3----1--0------------------------1--0------------1------3----1--0---------------| 

D|--------------------------------------------------------------------------------------------------------| 
B|--------------------------------------------------------------------------------------------------------| 
F|--------------------------------------------------------------------------------------------------------| 
C|-1--0------------1------3----1--0------------------------1--0------------1------3----1--0---------------| 
G|-1--0------------1------3----1--0------------------------1--0------------1------3----1--0---------------| 
C|-1--0------------1------3----1--0------------------------1--0------------1------3----1--0---------------| 

Chorus 
D|--------------------------------------------------------------------------------------------------------| 
B|--------------------------------------------------------------------------------------------------------| 
F|--------------------------------------------------------------------------------------------------------| 
C|-3---3---3-3------------3-3---3---3-3------------3---3---3-3------3-3---3---3-3-------------------------| 
G|-3---3---3-3------------3-3---3---3-3------------3---3---3-3------3-3---3---3-3-------------------------| 
C|-3---3---3-3------------3-3---3---3-3------------3---3---3-3------3-3---3---3-3-------------------------| 

D|--------------------------------------------------------------------------------------------------------| 
B|--------------------------------------------------------------------------------------------------------| 
F|--------------------------------------------------------------------------------------------------------| 
C|-0---0---0-0------------0-0---0---0-0------------0---0---0-0------0-0---0---0-0-------------------------| 
G|-0---0---0-0------------0-0---0---0-0------------0---0---0-0------0-0---0---0-0-------------------------| 
C|-0---0---0-0------------0-0---0---0-0------------0---0---0-0------0-0---0---0-0-------------------------| 

D|--------------------------------------------------------------------------------------------------------| 
B|--------------------------------------------------------------------------------------------------------| 
F|--------------------------------------------------------------------------------------------------------| 
C|-3---3---3-3------------3-3---3---3-3------------3---3---3-3------3-3---3---3-3-------------------------| 
G|-3---3---3-3------------3-3---3---3-3------------3---3---3-3------3-3---3---3-3-------------------------| 
C|-3---3---3-3------------3-3---3---3-3------------3---3---3-3------3-3---3---3-3-------------------------| 

D|--------------------------------------------------------------------------------------------------------| 
B|--------------------------------------------------------------------------------------------------------| 
F|--------------------------------------------------------------------------------------------------------| 
C|-0---0---0-0------------0-0---0---0-0------------8---8---8-8------8-8---8---8-8-------------------------| 
G|-0---0---0-0------------0-0---0---0-0------------8---8---8-8------8-8---8---8-8-------------------------| 
C|-0---0---0-0------------0-0---0---0-0------------8---8---8-8------8-8---8---8-8-------------------------| 

Post-Chorus 
D|--------------------------------------------------------------------------------------------------------| 
B|--------------------------------------------------------------------------------------------------------| 
F|--------------------------------------------------------------------------------------------------------| 
C|-10--10--10--10--10--10--11--11--11--11--11--11---------------------------------------------------------| 
G|-10--10--10--10--10--10--11--11--11--11--11--11---------------------------------------------------------| 
C|-10--10--10--10--10--10--11--11--11--11--11--11---------------------------------------------------------| 

D|--------------------------------------------------------------------------------------------------------| 
B|--------------------------------------------------------------------------------------------------------| 
F|--------------------------------------------------------------------------------------------------------| 
C|--------------------------------------------------------------------------------------------------------| 
G|-0--0----0----0--0-----------0--0----0----0--0-----------0--0----0----0--0-----------0--0----0----0--0--| 
C|-0--0----0----0--0-----------0--0----0----0--0-----------0--0----0----0--0-----------0--0----0----0--0--| 
   X  X    X    X  X           X  X    X    X  X           X  X    X    X  X           X  X    X    X  X 
		  

See also:

tabs Fall Out Boy - Sugar, We're Going Down tabs Green Day - Basket Case (ver. 2) tabs Blink 182 - Not Now tabs Blink 182 - Stay Together For the Kids tabs Green Day - Wake Me Up When September Ends tabs Blink 182 - Stay Together 4 the Kids
e-chords

Other versions:

tabs Senses Fail - Holy Mountain tabs System Of A Down - Holy Mountain (Live In Big Day Out 2005) tabs System Of A Down - Holy Mountain(ver. 2) tabs System Of A Down - Holy mountains
auto scroll beats size up size down change color hide chords drawings
tab show chords e-chords YouTube Clip e-chords hide all tabs e-chords go to top tab

share