Seether

home > Seether

Remedy the right version Tab

Seether

Difficulty: nolevelnolevel

by Brandon+Riggs

tuner correct add songbook print version text version save to e-mail
chordsukulelecavacokeyboardtabbassdrumsharmonicsflute Guitar Pro
chords

Remedy the right version

  		 
   Im sure this is right it is how they play it in concert 
 
x = palm mute if u dont know that 
 
 
This is the intro 
 
this is 1 way to play it and this is how seether plays it 
e------------------------------------------------------ 
B------------------------------------------------------ 
G------------------------------------------------------ 
D----------------- 2-2---------------2-2----------Repeat several times  
A-----2------5-5---0-0--2------5-5---0-0--------------- 
E  ---0--x---3-3--------0--x---3-3--------------------- 
 
 
 
this is another way to play the intro  
 
e----------------------------------------------------------- 
B----------------------------------------------------------- 
G----------------------------------------------------------- 
D----------------------------------------------------------- 
A-----------5-5--7-7----------5-5--7-7---------------------- 
E----0--x---3-3--5-5---0--x---3-3--5-5---------------------- 

	  

Full key step upFull key step up
Half key step upHalf key step up
Half key step downHalf key step down
Full key step downFull key step down
Search Paypal
auto scroll beats size up size down change color hide chords drawings
tab show chords e-chords YouTube Clip e-chords hide all tabs e-chords go to top tab