Seether

home > Seether

My Disaster Tab

Seether

Difficulty: nolevelnolevel

by terr%5Fschmitz

tuner correct add songbook print version text version save to e-mail
chordsukulelecavacokeyboardtabbassdrumsharmonicsflute Guitar Pro
chords

My Disaster

  		

Intro 
D|---------------------------------------------------------------------------| 
A|---------------------------------------------------------------------------| 
F|---------------------------------------------------------------------------| 
C|---------------------------------------------------------------------------| 
G|---------------------------------------------------------------------------| 
C|-0-0-13s12-0-10s12-0-8s10-8s7-5---0-0-13s12-0-10s12-0-8s10-8s7-10----------| 

D|------------------------------------------------------------| 
A|------------------------------------------------------------| 
F|------------------------------------------------------------| 
C|------------------------------------------------------------| 
G|------------------------------------------------------------| 
C|-0-0-13s12-0-10s12-0-8s10-8s7-5-3-0-10s8-5p0-5-0-12s10-5----| 

Verse 
D|------------------| 
A|---3--------------| 
F|---2----3----2----| 
C|---0----3----2----| 
G|---0----1----0----| 
C|---0----0----0----| 

Pre Chorus 
D|--------------| 
A|--------------| 
F|---3----2-----| 
C|---3----2-----| 
G|---1----0-----| 
C|---0----0-----| 

Chorus 
D|-----------------------------------------------| 
A|---3-------------------------3-----------------| 
F|---2-----3---3s5--2----------2----3----5-------| 
C|---0-----3---3s5--2----------0----3----5-------| 
G|---0-----1---1s3--0----------0----1----3-------| 
C|---0-----0---0-0--0--x3------0----0----0--x1---| 




************************************ 
	  

Search Paypal
auto scroll beats size up size down change color hide chords drawings
tab show chords e-chords YouTube Clip e-chords hide all tabs e-chords go to top tab