Seether

Broken

Seether

tabs Advanced advanced

by  MARTIN

save to print version add songbook text version e-mail correct tuner
chordsukulelecavacokeyboardtabbassdrumsharmonicaflute Guitar Pro
close
broken-by-seether

there is a video lesson for this song

chords

Broken

Key:  Em More
Broken Key BmBm
Broken Key CmCm
Broken Key C#mC#m
Broken Key DmDm(one step down)
Broken Key D#mD#m(half step down)
Broken Key EmEm(original key)
Broken Key FmFm(half step up)
Broken Key F#mF#m(one step up)
Broken Key GmGm
Broken Key G#mG#m
Broken Key AmAm
Broken Key A#mA#m
	  		 Intro / Pre-Verse 
  Slow Rock Q=60 
  E5  Em        C                      E5  Em        C 
 4/4 
  Gtr I 
  E   S S  S  S E +S  E   S E    S S   E   S S  S  S E +S  E   S E    S S 
|-----0-0--x--0-0-(0)-0---0-0----0---|-----0-0--x--0-0-(0)-0---0-0----0----| 
|-----0-0--x--1-1-(1)-1---1-1----1---|-----0-0--x--1-1-(1)-1---1-1----1----| 
|-----0-0--x--0-0-(0)-0---0-0----0-0-|-----0-0--x--0-0-(0)-0---0-0----0-0--| 
|-----2-2--x--2-2-(2)-----2-2------2-|-----2-2--x--2-2-(2)-----2-2------2--| 
|-2---2----x----3-(3)-------3------3-|-2---2----x----3-(3)-------3------3--| 
|-0---0------------------------------|-0---0-------------------------------| 
| 
| Gtr II 
| S S S S  S  S E +S  S S S S S  S S   S S S S  S  S E +S  S S S S S  S S 
|-2h3------3----3-(3)-----3----------|-2h3------3----3-(3)-----3-----------| 
|-----0---------1-(1)---0---0------3-|-----0---------1-(1)---0---0------3--| 
|-------0-------0-(0)-0----------0---|-------0-------0-(0)-0----------0----| 
|-2-------(2)---2-(2)----------------|-2-------(2)---2-(2)-----------------| 
|---------------3-(3)---------3------|---------------3-(3)---------3-------| 
|------------------------------------|-------------------------------------| 
  Q       +S  S E +Q        S E.       Q       +S  S E +Q        S E. 
 
 
  E5  Em        C                      D/A 
  E   S S  S  S E +S  E   S E    S S   E.    S +S S E   +S  S +S  S E   S S 
|-----0-0--x--0-0-(0)-0---0-0----0---|-0-----0-(0)0-0---(0)-0-(0)-0-0---0-0--|| 
|-----0-0--x--1-1-(1)-1---1-1----1---|-3-----3-(3)3-3---(3)-3-(3)-3-3---3-3--|| 
|-----0-0--x--0-0-(0)-0---0-0----0-0-|-2------------2---(2)---------2---2----|| 
|-----2-2--x--2-2-(2)-----2-2------2-|-0------------0---------------0--------|| 
|-2---2----x----3-(3)-------3------3-|-0-------------------------------------|| 
|-0---0------------------------------|---------------------------------------|| 
| 
| S S S S  S  S E +S  S S S S S  S S   S S S S  S S S S  S  S  S  S S S S S 
|-2h3------3----3-(3)-----3----------|-0h2------3p2---0h=2----------3p2------|| 
|-----0---------1-(1)---0---0------3-|-----3--------3-------3-----3-----3----|| 
|-------0-------0-(0)-0----------0---|-------2-----------------2----------2--|| 
|-2-------(2)---2-(2)----------------|-0-------------------------------------|| 
|---------------3-(3)---------3------|---------------------------------------|| 
|------------------------------------|---------------------------------------|| 
  Q       +S  S E +Q        S E.       W 
 
 
   Verse 
    E5  Em        C                      E5  Em        C 
    E   S S  S  S E +S  E   S E    S S   E   S S  S  S E +S  E   S E    S S 
||------0-0--x--0-0-(0)-0---0-0----0---|-----0-0--x--0-0-(0)-0---0-0----0----| 
||o-----0-0--x--1-1-(1)-1---1-1----1---|-----0-0--x--1-1-(1)-1---1-1----1----| 
||------0-0--x--0-0-(0)-0---0-0----0-0-|-----0-0--x--0-0-(0)-0---0-0----0-0--| 
||------2-2--x--2-2-(2)-----2-2------2-|-----2-2--x--2-2-(2)-----2-2------2--| 
||o-2---2----x----3-(3)-------3------3-|-2---2----x----3-(3)-------3------3--| 
||--0---0------------------------------|-0---0-------------------------------| 
| 
|   S S S S  S  S E +S  S S S S S  S S   S S S S  S  S E +S  S S S S S  S S 
||--2h3------3----3-(3)-----3----------|-2h3------3----3-(3)-----3-----------| 
||o-----0---------1-(1)---0---0------3-|-----0---------1-(1)---0---0------3--| 
||--------0-------0-(0)-0----------0---|-------0-------0-(0)-0----------0----| 
||--2-------(2)---2-(2)----------------|-2-------(2)---2-(2)-----------------| 
||o---------------3-(3)---------3------|---------------3-(3)---------3-------| 
||-------------------------------------|-------------------------------------| 
    Q       +S  S E +Q        S E.       Q       +S  S E +Q        S E. 
 
 
                                                                   To Coda 
  E5  Em        C                      D/A 
  E   S S  S  S E +S  E   S E    S S   E.    S +S S E   +S  S +S  S E   S S 
|-----0-0--x--0-0-(0)-0---0-0----0---|-0-----0-(0)0-0---(0)-0-(0)-0-0---0-0---|| 
|-----0-0--x--1-1-(1)-1---1-1----1---|-3-----3-(3)3-3---(3)-3-(3)-3-3---3-3--o|| 
|-----0-0--x--0-0-(0)-0---0-0----0-0-|-2------------2---(2)---------2---2-----|| 
|-----2-2--x--2-2-(2)-----2-2------2-|-0------------0---------------0---------|| 
|-2---2----x----3-(3)-------3------3-|-0-------------------------------------o|| 
|-0---0------------------------------|----------------------------------------|| 
| 
| S S S S  S  S E +S  S S S S S  S S   S S S S  S S S S  S  S  S  S S S S S 
|-2h3------3----3-(3)-----3----------|-0h2------3p2---0h=2----------3p2-------|| 
|-----0---------1-(1)---0---0------3-|-----3--------3-------3-----3-----3----o|| 
|-------0-------0-(0)-0----------0---|-------2-----------------2----------2---|| 
|-2-------(2)---2-(2)----------------|-0--------------------------------------|| 
|---------------3-(3)---------3------|---------------------------------------o|| 
|------------------------------------|----------------------------------------|| 
  Q       +S  S E +Q        S E.       W 
 
 
   1st Chorus 
    Em7/C       Em/B        Dsus2/A   Em7/C       Em/B        Dsus2/A 
    S S S S S S E +S  S S S S S S S   S S S S S S E +S  S S S S S S S 
||--0-0-0-0-0---0-(0)-0-----0-0-----|-0-0-0-0-0---0-(0)-0-----0-0------| 
||o-3-3-3-3-3---0-(0)-0-0-0-3-3-0---|-3-3-3-3-3---0-(0)-0-0-0-3-3-0----| 
||--0-0-0-0-0---0-(0)-0-0-0-2-2-0-0-|-0-0-0-0-0---0-(0)-0-0-0-2-2-0-0--| 
||--2-2-2-2-2---2-(2)-------------2-|-2-2-2-2-2---2-(2)-------------2--| 
||o-3-3-3-3-3---2-(2)-------------2-|-3-3-3-3-3---2-(2)-------------2--| 
||----------------------------------|----------------------------------| 
| 
|   S S S S S S E +S  S S S S S S S   S S S S S S E +S  S S S S S S S 
||----------------------------------|----------------------------------| 
||o---------------------------------|----------------------------------| 
||--5-5-5-5-5---------------7-7-7-7-|-5-5-5-5-5---------------7-7-7-7--| 
||--5-5-5-5-5---2-(2)-2-2-0-7-7-7-7-|-5-5-5-5-5---2-(2)-2-2-0-7-7-7-7--| 
||o-3-3-3-3-3---2-(2)-2-2-0-5-5-5-5-|-3-3-3-3-3---2-(2)-2-2-0-5-5-5-5--| 
||--------------0-(0)-0-0---5-5-5-5-|-------------0-(0)-0-0---5-5-5-5--| 
 
 
  1. 
  Em7/C       Em/B        Dsus2/A   Em7/C       Em/B        Dsus2/A 
  S S S S S S E +S  S S S S S S S   S S S S S S E +S  S S S S S S S 
|-0-0-0-0-0---0-(0)-0-----0-0-----|-0-0-0-0-0---0-(0)-0-----0-0------|| 
|-3-3-3-3-3---0-(0)-0-0-0-3-3-0---|-3-3-3-3-3---0-(0)-0-0-0-3-3-0---o|| 
|-0-0-0-0-0---0-(0)-0-0-0-2-2-0-0-|-0-0-0-0-0---0-(0)-0-0-0-2-2-0-0--|| 
|-2-2-2-2-2---2-(2)-------------2-|-2-2-2-2-2---2-(2)-------------2--|| 
|-3-3-3-3-3---2-(2)-------------2-|-3-3-3-3-3---2-(2)-------------2-o|| 
|---------------------------------|----------------------------------|| 
| 
| S S S S S S E +S  S S S S S S S   S S S S S S E +S  S S S S S S S 
|---------------------------------|----------------------------------|| 
|---------------------------------|---------------------------------o|| 
|-5-5-5-5-5---------------7-7-7-7-|-5-5-5-5-5---------------7-7-7-7--|| 
|-5-5-5-5-5---2-(2)-2-2-0-7-7-7-7-|-5-5-5-5-5---2-(2)-2-2-0-7-7-7-7--|| 
|-3-3-3-3-3---2-(2)-2-2-0-5-5-5-5-|-3-3-3-3-3---2-(2)-2-2-0-5-5-5-5-o|| 
|-------------0-(0)-0-0---5-5-5-5-|-------------0-(0)-0-0---5-5-5-5--|| 
 
 
  2. 
                                      D.C. al Coda 
  Em7/C       Em/B        Dsus2/A   Em7/C       Bsus4/E 
  S S S S S S E +S  S S S S S S S   S S S S S S E +H 
|-0-0-0-0-0---0-(0)-0-----0-0-----|-0-0-0-0-0---0-(0)----|| 
|-3-3-3-3-3---0-(0)-0-0-0-3-3-0---|-3-3-3-3-3---0-(0)----|| 
|-0-0-0-0-0---0-(0)-0-0-0-2-2-0-0-|-0-0-0-0-0---0-(0)----|| 
|-2-2-2-2-2---2-(2)-------------2-|-2-2-2-2-2---2-(2)----|| 
|-3-3-3-3-3---2-(2)-------------2-|-3-3-3-3-3---2-(2)----|| 
|---------------------------------|----------------------|| 
| 
| S S S S S S E +S  S S S S S S S   S S S S S S E +H 
|---------------------------------|----------------------|| 
|---------------------------------|----------------------|| 
|-5-5-5-5-5---------------7-7-7-7-|-5-5-5-5-5------------|| 
|-5-5-5-5-5---2-(2)-2-2-0-7-7-7-7-|-5-5-5-5-5---2-(2)----|| 
|-3-3-3-3-3---2-(2)-2-2-0-5-5-5-5-|-3-3-3-3-3---2-(2)----|| 
|-------------0-(0)-0-0---5-5-5-5-|-------------0-(0)----|| 
 
 
   2nd Chorus 
    & 
    Em7/C       Em/B        Dsus2/A   Em7/C       Em/B        Dsus2/A 
    S S S S S S E +S  S S S S S S S   S S S S S S E +S  S S S S S S S 
||--0-0-0-0-0---0-(0)-0-----0-0-----|-0-0-0-0-0---0-(0)-0-----0-0------| 
||o-3-3-3-3-3---0-(0)-0-0-0-3-3-0---|-3-3-3-3-3---0-(0)-0-0-0-3-3-0----| 
||--0-0-0-0-0---0-(0)-0-0-0-2-2-0-0-|-0-0-0-0-0---0-(0)-0-0-0-2-2-0-0--| 
||--2-2-2-2-2---2-(2)-------------2-|-2-2-2-2-2---2-(2)-------------2--| 
||o-3-3-3-3-3---2-(2)-------------2-|-3-3-3-3-3---2-(2)-------------2--| 
||----------------------------------|----------------------------------| 
| 
|   S S S S S S E +S  S S S S S S S   S S S S S S E +S  S S S S S S S 
||----------------------------------|----------------------------------| 
||o---------------------------------|----------------------------------| 
||--5-5-5-5-5---------------7-7-7-7-|-5-5-5-5-5---------------7-7-7-7--| 
||--5-5-5-5-5---2-(2)-2-2-0-7-7-7-7-|-5-5-5-5-5---2-(2)-2-2-0-7-7-7-7--| 
||o-3-3-3-3-3---2-(2)-2-2-0-5-5-5-5-|-3-3-3-3-3---2-(2)-2-2-0-5-5-5-5--| 
||--------------0-(0)-0-0---5-5-5-5-|-------------0-(0)-0-0---5-5-5-5--| 
 
 
  1. 
  Em7/C       Em/B        Dsus2/A   Em7/C       Em/B        Dsus2/A 
  S S S S S S E +S  S S S S S S S   S S S S S S E +S  S S S S S S S 
|-0-0-0-0-0---0-(0)-0-----0-0-----|-0-0-0-0-0---0-(0)-0-----0-0------|| 
|-3-3-3-3-3---0-(0)-0-0-0-3-3-0---|-3-3-3-3-3---0-(0)-0-0-0-3-3-0---o|| 
|-0-0-0-0-0---0-(0)-0-0-0-2-2-0-0-|-0-0-0-0-0---0-(0)-0-0-0-2-2-0-0--|| 
|-2-2-2-2-2---2-(2)-------------2-|-2-2-2-2-2---2-(2)-------------2--|| 
|-3-3-3-3-3---2-(2)-------------2-|-3-3-3-3-3---2-(2)-------------2-o|| 
|---------------------------------|----------------------------------|| 
| 
| S S S S S S E +S  S S S S S S S   S S S S S S E +S  S S S S S S S 
|---------------------------------|----------------------------------|| 
|---------------------------------|---------------------------------o|| 
|-5-5-5-5-5---------------7-7-7-7-|-5-5-5-5-5---------------7-7-7-7--|| 
|-5-5-5-5-5---2-(2)-2-2-0-7-7-7-7-|-5-5-5-5-5---2-(2)-2-2-0-7-7-7-7--|| 
|-3-3-3-3-3---2-(2)-2-2-0-5-5-5-5-|-3-3-3-3-3---2-(2)-2-2-0-5-5-5-5-o|| 
|-------------0-(0)-0-0---5-5-5-5-|-------------0-(0)-0-0---5-5-5-5--|| 
 
 
  2. 
  Em7/C       Em/B        Dsus2/A   Em7/C       Bsus4/E 
  S S S S S S E +S  S S S S S S S   S S S S S S E +H 
|-0-0-0-0-0---0-(0)-0-----0-0-----|-0-0-0-0-0---0-(0)---------|| 
|-3-3-3-3-3---0-(0)-0-0-0-3-3-0---|-3-3-3-3-3---0-(0)---------|| 
|-0-0-0-0-0---0-(0)-0-0-0-2-2-0-0-|-0-0-0-0-0---0-(0)---------|| 
|-2-2-2-2-2---2-(2)-------------2-|-2-2-2-2-2---2-(2)---------|| 
|-3-3-3-3-3---2-(2)-------------2-|-3-3-3-3-3---2-(2)---------|| 
|---------------------------------|---------------------------|| 
| 
| S S S S S S E +S  S S S S S S S   S S S S S S E +Q      Q 
|---------------------------------|--------------------^<12>--|| 
|---------------------------------|--------------------^<12>--|| 
|-5-5-5-5-5---------------7-7-7-7-|-5-5-5-5-5-----------------|| 
|-5-5-5-5-5---2-(2)-2-2-0-7-7-7-7-|-5-5-5-5-5---2-(2)---------|| 
|-3-3-3-3-3---2-(2)-2-2-0-5-5-5-5-|-3-3-3-3-3---2-(2)---------|| 
|-------------0-(0)-0-0---5-5-5-5-|-------------0-(0)---------|| 
 
 
 Guitar Solo 
  E5  Em          C 
  Gtr I 
  E   S S  S   S   E +S  E    S E    S S 
|-----0-0--x---0---0-(0)-0----0-0----0---| 
|-----0-0--x---1---1-(1)-1----1-1----1---| 
|-----0-0--x---0---0-(0)-0----0-0----0-0-| 
|-----2-2--x---2---2-(2)------2-2------2-| 
|-2---2----x-------3-(3)--------3------3-| 
|-0---0----------------------------------| 
| 
| Gtr II 
| S S S S  S   S   E +S  S  S S S S  S S 
|-2h3------3-------3-(3)------3----------| 
|-----0------------1-(1)----0---0------3-| 
|-------0----------0-(0)-0-----------0---| 
|-2-------(2)------2-(2)-----------------| 
|------------------3-(3)----------3------| 
|----------------------------------------| 
| Q       +S   S   E +Q         S E. 
| 
| Gtr III 
| S S S S  S   S   E +S  E.     S S  S S 
|----------------------------------------| 
|----------------------------------------| 
|----------------------------------------| 
|-----------------/5-(5)-4------4h5--4-2-| 
|-------5--7--(5)------------------------| 
|-0-5-7----------------------------------| 
 
 
  E5  Em        C 
  E   S S  S  S E +S  E    S  E     S S 
|-----0-0--x--0-0-(0)-0----0--0-----0---| 
|-----0-0--x--1-1-(1)-1----1--1-----1---| 
|-----0-0--x--0-0-(0)-0----0--0-----0-0-| 
|-----2-2--x--2-2-(2)------2--2-------2-| 
|-2---2----x----3-(3)---------3-------3-| 
|-0---0---------------------------------| 
| 
| S S S S  S  S E +S  S  S S  S  S  S S 
|-2h3------3----3-(3)------3------------| 
|-----0---------1-(1)----0----0-------3-| 
|-------0-------0-(0)-0-------------0---| 
|-2-------(2)---2-(2)-------------------| 
|---------------3-(3)------------3------| 
|---------------------------------------| 
| Q       +S  S E +Q          S  E. 
| 
| E.    S +E    E +S  E.     +Q 
|---------------------------------------| 
|---------------5-(5)-------------------| 
|-------4-(4)---------4------(4)--------| 
|-2-------------------------------------| 
|---------------------------------------| 
|---------------------------------------| 
 
 
  E5  Em          C 
  E   S S  S   S   E +S  E    S E    S S 
|-----0-0--x---0---0-(0)-0----0-0----0---| 
|-----0-0--x---1---1-(1)-1----1-1----1---| 
|-----0-0--x---0---0-(0)-0----0-0----0-0-| 
|-----2-2--x---2---2-(2)------2-2------2-| 
|-2---2----x-------3-(3)--------3------3-| 
|-0---0----------------------------------| 
| 
| S S S S  S   S   E +S  S  S S S S  S S 
|-2h3------3-------3-(3)------3----------| 
|-----0------------1-(1)----0---0------3-| 
|-------0----------0-(0)-0-----------0---| 
|-2-------(2)------2-(2)-----------------| 
|------------------3-(3)----------3------| 
|----------------------------------------| 
| Q       +S   S   E +Q         S E. 
| 
| S S S S  S   S   E +S  E.     S S  S S 
|----------------------------------------| 
|----------------------------------------| 
|----------------------------------------| 
|-----------------/5-(5)-4------4h5--4h5-| 
|-------5--7--(5)------------------------| 
|-0-5-7----------------------------------| 
 
 
    D/A 
    E.    S +S  S E   +S  S +S   S  E   S S 
|---0-----0-(0)-0-0---(0)-0-(0)--0--0---0-0-| 
|---3-----3-(3)-3-3---(3)-3-(3)--3--3---3-3-| 
|---2-------------2---(2)-----------2---2---| 
|---0-------------0-----------------0-------| 
|---0---------------------------------------| 
|-------------------------------------------| 
| 
|   S S S S  S  S S S  S  S  S   S  S S S S 
|---0h2------3p=2---0h=2------------3p2-----| 
|-------3---------3-------3------3------3---| 
|---------2------------------2------------2-| 
|---0---------------------------------------| 
|-------------------------------------------| 
|-------------------------------------------| 
|   W 
| 
| a E.    S +E    E   +S  E      S  S S S S 
|-------------------------------------------| 
|-------------------------------------------| 
|---------7-(7)---5---(5)-4-----(2)-2h4-4-4-| 
|-5S7---------------------------------------| 
|-------------------------------------------| 
|-------------------------------------------| 
 
 
  E5  Em          C 
  E   S S  S   S   E +S  E    S E    S S 
|-----0-0--x---0---0-(0)-0----0-0----0---| 
|-----0-0--x---1---1-(1)-1----1-1----1---| 
|-----0-0--x---0---0-(0)-0----0-0----0-0-| 
|-----2-2--x---2---2-(2)------2-2------2-| 
|-2---2----x-------3-(3)--------3------3-| 
|-0---0----------------------------------| 
| 
| S S S S  S   S   E +S  S  S S S S  S S 
|-2h3------3-------3-(3)------3----------| 
|-----0------------1-(1)----0---0------3-| 
|-------0----------0-(0)-0-----------0---| 
|-2-------(2)------2-(2)-----------------| 
|------------------3-(3)----------3------| 
|----------------------------------------| 
| Q       +S   S   E +Q         S E. 
| 
| S S S S  S   S   E +S  E.     S S  S S 
|----------------------------------------| 
|----------------------------------------| 
|----------------------------------------| 
|-----------------/5-(5)-4------4h5--4-2-| 
|-------5--7--(5)------------------------| 
|-0-5-7----------------------------------| 
 
 
    E5  Em        C 
    E   S S  S  S E +S  E    S E    S S 
|-------0-0--x--0-0-(0)-0----0-0----0----| 
|-------0-0--x--1-1-(1)-1----1-1----1----| 
|-------0-0--x--0-0-(0)-0----0-0----0-0--| 
|-------2-2--x--2-2-(2)------2-2------2--| 
|---2---2----x----3-(3)--------3------3--| 
|---0---0--------------------------------| 
| 
|   S S S S  S  S E +S  S  S S S S  S S 
|---2h3------3----3-(3)------3-----------| 
|-------0---------1-(1)----0---0------3--| 
|---------0-------0-(0)-0-----------0----| 
|---2-------(2)---2-(2)------------------| 
|-----------------3-(3)----------3-------| 
|----------------------------------------| 
|   Q       +S  S E +Q         S E. 
| 
| a E.    S +S  S E +S  E.     Q 
|----------------------------------------| 
|------------------------------5---------| 
|-----------------------4----------------| 
|-2S7-----5-(5)p2-2-(2)------------------| 
|----------------------------------------| 
|----------------------------------------| 
 
 
  E5  Em          C 
  E   S S  S   S   E +S  E    S E    S S 
|-----0-0--x---0---0-(0)-0----0-0----0---| 
|-----0-0--x---1---1-(1)-1----1-1----1---| 
|-----0-0--x---0---0-(0)-0----0-0----0-0-| 
|-----2-2--x---2---2-(2)------2-2------2-| 
|-2---2----x-------3-(3)--------3------3-| 
|-0---0----------------------------------| 
| 
| S S S S  S   S   E +S  S  S S S S  S S 
|-2h3------3-------3-(3)------3----------| 
|-----0------------1-(1)----0---0------3-| 
|-------0----------0-(0)-0-----------0---| 
|-2-------(2)------2-(2)-----------------| 
|------------------3-(3)----------3------| 
|----------------------------------------| 
| Q       +S   S   E +Q         S E. 
| 
| S S S S  S   S   E +S  E.     S S  S S 
|----------------------------------------| 
|----------------------------------------| 
|----------------------------------------| 
|-----------------/5-(5)-4------4h5--4h5-| 
|-------5--7--(5)------------------------| 
|-0-5-7----------------------------------| 
 
 
    D/A 
    E.    S +S  S E   +S  S +S   S  E   S S 
|---0-----0-(0)-0-0---(0)-0-(0)--0--0---0-0-|| 
|---3-----3-(3)-3-3---(3)-3-(3)--3--3---3-3-|| 
|---2-------------2---(2)-----------2---2---|| 
|---0-------------0-----------------0-------|| 
|---0---------------------------------------|| 
|-------------------------------------------|| 
| 
|   S S S S  S  S S S  S  S  S   S  S S S S 
|---0h2------3p=2---0h=2------------3p2-----|| 
|-------3---------3-------3------3------3---|| 
|---------2------------------2------------2-|| 
|---0---------------------------------------|| 
|-------------------------------------------|| 
|-------------------------------------------|| 
|   W 
| 
| a E.    S +E    E   +S  E      S  S S S S 
|-------------------------------------------|| 
|-------------------------------------------|| 
|---------7-(7)---5---(5)-4-----(2)-2h4-4-4-|| 
|-5S7---------------------------------------|| 
|-------------------------------------------|| 
|-------------------------------------------|| 
 
 
   3rd Chorus 
    Em7/C       Em/B        Dsus2/A   Em7/C       Em/B        Dsus2/A 
    S S S S S S E +S  S S S S S S S   S S S S S S E +S  S S S S S S S 
||--0-0-0-0-0---0-(0)-0-----0-0-----|-0-0-0-0-0---0-(0)-0-----0-0------| 
||o-3-3-3-3-3---0-(0)-0-0-0-3-3-0---|-3-3-3-3-3---0-(0)-0-0-0-3-3-0----| 
||--0-0-0-0-0---0-(0)-0-0-0-2-2-0-0-|-0-0-0-0-0---0-(0)-0-0-0-2-2-0-0--| 
||--2-2-2-2-2---2-(2)-------------2-|-2-2-2-2-2---2-(2)-------------2--| 
||o-3-3-3-3-3---2-(2)-------------2-|-3-3-3-3-3---2-(2)-------------2--| 
||----------------------------------|----------------------------------| 
| 
|   S S S S S S E +S  S S S S S S S   S S S S S S E +S  S S S S S S S 
||----------------------------------|----------------------------------| 
||o---------------------------------|----------------------------------| 
||--5-5-5-5-5---------------7-7-7-7-|-5-5-5-5-5---------------7-7-7-7--| 
||--5-5-5-5-5---2-(2)-2-2-0-7-7-7-7-|-5-5-5-5-5---2-(2)-2-2-0-7-7-7-7--| 
||o-3-3-3-3-3---2-(2)-2-2-0-5-5-5-5-|-3-3-3-3-3---2-(2)-2-2-0-5-5-5-5--| 
||--------------0-(0)-0-0---5-5-5-5-|-------------0-(0)-0-0---5-5-5-5--| 
 
 
  1. 
  Em7/C       Em/B        Dsus2/A   Em7/C       Em/B        Dsus2/A 
  S S S S S S E +S  S S S S S S S   S S S S S S E +S  S S S S S S S 
|-0-0-0-0-0---0-(0)-0-----0-0-----|-0-0-0-0-0---0-(0)-0-----0-0------|| 
|-3-3-3-3-3---0-(0)-0-0-0-3-3-0---|-3-3-3-3-3---0-(0)-0-0-0-3-3-0---o|| 
|-0-0-0-0-0---0-(0)-0-0-0-2-2-0-0-|-0-0-0-0-0---0-(0)-0-0-0-2-2-0-0--|| 
|-2-2-2-2-2---2-(2)-------------2-|-2-2-2-2-2---2-(2)-------------2--|| 
|-3-3-3-3-3---2-(2)-------------2-|-3-3-3-3-3---2-(2)-------------2-o|| 
|---------------------------------|----------------------------------|| 
| 
| S S S S S S E +S  S S S S S S S   S S S S S S E +S  S S S S S S S 
|---------------------------------|----------------------------------|| 
|---------------------------------|---------------------------------o|| 
|-5-5-5-5-5---------------7-7-7-7-|-5-5-5-5-5---------------7-7-7-7--|| 
|-5-5-5-5-5---2-(2)-2-2-0-7-7-7-7-|-5-5-5-5-5---2-(2)-2-2-0-7-7-7-7--|| 
|-3-3-3-3-3---2-(2)-2-2-0-5-5-5-5-|-3-3-3-3-3---2-(2)-2-2-0-5-5-5-5-o|| 
|-------------0-(0)-0-0---5-5-5-5-|-------------0-(0)-0-0---5-5-5-5--|| 
 
 
  2. 
  Em7/C       Em/B        Dsus2/A   Em7/C       Em/B 
  S S S S S S E +S  S S S S S S S   S S S S S S E +H 
|-0-0-0-0-0---0-(0)-0-----0-0-----|-0-0-0-0-0---0-(0)----|| 
|-3-3-3-3-3---0-(0)-0-0-0-3-3-0---|-3-3-3-3-3---0-(0)----|| 
|-0-0-0-0-0---0-(0)-0-0-0-2-2-0-0-|-0-0-0-0-0---0-(0)----|| 
|-2-2-2-2-2---2-(2)-------------2-|-2-2-2-2-2---2-(2)----|| 
|-3-3-3-3-3---2-(2)-------------2-|-3-3-3-3-3---2-(2)----|| 
|---------------------------------|----------------------|| 
| 
| S S S S S S E +S  S S S S S S S   S S S S S S E +H 
|---------------------------------|----------------------|| 
|---------------------------------|----------------------|| 
|-5-5-5-5-5---------------7-7-7-7-|-5-5-5-5-5------------|| 
|-5-5-5-5-5---2-(2)-2-2-0-7-7-7-7-|-5-5-5-5-5---2-(2)----|| 
|-3-3-3-3-3---2-(2)-2-2-0-5-5-5-5-|-3-3-3-3-3---2-(2)----|| 
|-------------0-(0)-0-0---5-5-5-5-|-------------0-(0)----|| 
 
 
   Outro 
    E5                   C 
      E  S   S     S   S E +S  E S E S S 
||-----------0---------x-------0-0-------| 
||o----------0---------x-1-(1)-1-1-1-1---| 
||-----------0---------x-0-(0)-0-0-0-0-0-| 
||----2------2---------x-2-(2)-----2---2-| 
||o---2--2---------------3-(3)-----------| 
||----0--0-------------------------------| 
| 
|     E.     S    +H. 
||--<12>---------------------------------| 
||o--------<12>-(<12>)-------------------| 
||---------------------------------------| 
||---------------------------------------| 
||o--------------------------------------| 
||---------------------------------------| 
 
 
  E5                   C 
    E  S   S     S   S E +S  E S E S S 
|----------0---------x-------0-0-------| 
|----------0---------x-1-(1)-1-1-1-1---| 
|----------0---------x-0-(0)-0-0-0-0-0-| 
|---2------2---------x-2-(2)-----2---2-| 
|---2--2---------------3-(3)-----------| 
|---0--0-------------------------------| 
| 
|   E.     S    +H. 
|--------------------------------------| 
|--------------------------------------| 
|--------<12>-(<12>)-------------------| 
|-<12>---------------------------------| 
|--------------------------------------| 
|--------------------------------------| 
 
 
  E5                   C 
    E  S   S     S   S E +S  E S E S S 
|----------0---------x-------0-0-------| 
|----------0---------x-1-(1)-1-1-1-1---| 
|----------0---------x-0-(0)-0-0-0-0-0-| 
|---2------2---------x-2-(2)-----2---2-| 
|---2--2---------------3-(3)-----------| 
|---0--0-------------------------------| 
| 
|   E.     S    +H. 
|-<12>---------------------------------| 
|--------<12>-(<12>)-------------------| 
|--------------------------------------| 
|--------------------------------------| 
|--------------------------------------| 
|--------------------------------------| 
 
 
  Dsus2/A 
   E.  S   +S   S  E   +S   S +S  S E S S 
|--0---0---(0)--0--0---(0)--0-(0)-0-0-0-0--|| 
|--3---3---(3)--3--3---(3)--3-(3)-3-3-3-3-o|| 
|--2---------------2---(2)----------2-2----|| 
|--0---------------0----------------0------|| 
|--0--------------------------------------o|| 
|------------------------------------------|| 
| 
|  E.  S   +E      E   +H 
|------------------------------------------|| 
|-<7>-------------------------------------o|| 
|-----<7>-(<7>)----------------------------|| 
|-----------------<7>-(<7>)----------------|| 
|-----------------------------------------o|| 
|------------------------------------------|| 
 
 
         Em/B 
     Q    H.          +W 
|--------!0-------|---(0)-----*| 
|--------!0-------|---(0)-----*| 
|--------!0-------|---(0)-----*| 
|--------!2-------|---(2)-----*| 
|--------!2-------|---(2)-----*| 
|----0------------|-----------*| 
| 
|    W                +W 
|-^<12>-----------|-(<12>)----*| 
|-^<12>-----------|-(<12>)----*| 
|-^<12>-----------|-(<12>)----*| 
|-----------------|-----------*| 
|-----------------|-----------*| 
|-----------------|-----------*| 
 
 

		  

See also:

tabs Slayer - Black Magic tabs Slipknot - Circle (acoustic) tabs Slipknot - The Nameless tabs Slipknot - My Plague tabs Marilyn Manson - Rock Is Dead tabs Alice Cooper - No More Mr. Nice Guy
e-chords

Other versions:

tabs Bad Religion - Broken tabs Evanescence - Broken tabs Pennywise - Broken tabs Seether - Broken tabs Sonata Arctica - Broken tabs Amy Lee ft. Seether - Broken
auto scroll beats size up size down change color hide chords drawings
tab show chords e-chords YouTube Clip e-chords hide all tabs e-chords go to top tab

share