Secondhand Serenade

Maybe (intro)

Secondhand Serenade

tabs Expert expert

by  KRAYZT2

save to print version add songbook text version e-mail correct tuner
chordsukulelecavacokeyboardtabbassdrumsharmonicaflute Guitar Pro
close

there isn't a video lesson for this song

chords

Maybe (intro)

	  		e|-0-2-4-4-5-4-2-4-4-5-7--4-4-5-4-2-4-4-5-2--| 
B|--0-0-0-0---0---0-0-0-0--0-0---0---0-0-0-0-| 
G|-------------------------------------------| 
D|-------------------------------------------| 
A|-------------------------------------------| 
E|-------------------------------------------| 
  
e|--4-4-5-4-2-4-4-5-7--4-5-2-4-0-2-4-5-7----| 
B|---0-0---0---0-0-0-0--0-0-0-0-0-0-0-0-----| 
G|------------------------------------------| 
D|------------------------------------------| 
A|------------------------------------------| 
E|------------------------------------------| 

		  

See also:

tabs Live - Lightning Crashes tabs R.E.M. - Losing my religion tabs Aerosmith - I Don't Want To Miss A Thing tabs Blue Oyster Cult - Dont Fear The Reaper tabs Cheap Trick - The Flame tabs Guns N' Roses - Estranged
e-chords

Other versions:

tabs Lily Kershaw - Maybe tabs Jim Black - Maybe tabs Mateus Asato - Maybe tabs The Get Up Kids - Maybe tabs Secondhand Serenade - Maybe (intro) tabs Zombies - Maybe After He's Gone
auto scroll beats size up size down change color hide chords drawings
tab show chords e-chords YouTube Clip e-chords hide all tabs e-chords go to top tab

share