Sebastian Bach

You Dont Understand

Sebastian Bach

tabs Easy easy

by  HEBEALMEIDA

save to print version add songbook text version e-mail correct tuner
chordsukulelecavacokeyboardtabbassdrumsharmonicaflute Guitar Pro
close

there isn't a video lesson for this song

chords

You Dont Understand

	  		(DRUMS INTRO) 

Guitar 1 
 
E|---------------------------------------------------------| 
B|---9---7-------------------9---7-------------------------| 
G|-----------9-----6--9--11----------9---------------------| 
D|---------------------------------------------------------| 
A|---------------------------------------------------------| 
E|---------------------------------------------------------| 
 

 
E|---------------------------------------------------------| 
B|---9---7-----------------------------9999--7-------------| 
G|-----------9-----6--9--11--8--9--11----------------------| 
D|---------------------------------------------------------| 
A|---------------------------------------------------------| 
E|---------------------------------------------------------| 
 

This melody line is repeated 3 times through the song (0:02, 0:45, 1:46) 

-==Versão 2==- 

Tuning: Tuned down one step DGCFAD 

 
E|-7--X-7--7-7-7-------------------------------------------------| 
B|-8--X-8--8-8-8-----------------------------------7--X-7--7-7-7-| 
G|-9--X-9--9-9-9--9--X--9---9--9--9--6--X-6--6-6-6-7--X-7--7-7-7-| 
D|-9--X-9--9-9-9-10--X-10--10-10-10--7--X-7--7-7-7-7--X-7--7-7-7-| 
A|-7--x-7--7-7-7-10--X-10--10-10-10--7--X-7--7-7-7-5--X-5--5-5-5-| 
E|----------------8--X--8---8--8--8--5--X-5--5-5-5---------------| x4 
 

 
E|-7-7-7-7-----------------------------------------| 
B|-8-8-8-8----------------------------7-7--7-7-7-7-| 
G|-9-9-9-9--9--9---9--9--9--9-6-6-6-6-7-7--7-7-7-7-| 
D|-9-9-9-9-10-10--10-10-10-10-7-7-7-7-7-7--7-7-7-7-| 
A|-7-7-7-7-10-10--10-10-10-10-7-7-7-7-5-5--5-5-5-5-| 
E|----------8--8---8--8--8--8-5-5-5-5--------------| x4 
 

 
E|---------------------|    e|----------------------| 
B|---------------------|    B|----------------------| 
G|-4-4-----------------|    G|-4-4-4-4-7--7-7--7-7--| 
D|-4-4-4-4-5-7-7--7-7--|    D|-4-4-4-4-7--7-7--7-7--| 
A|-2-2-4-4-5-7-7--7-7--|    A|-2-2-2-2-5--5-5--5-5--| 
E|-----2-2-3-5-5--5-5--| x3 E|----------------------| 
 

 
E|-7-7-7-7-----------------------------------------| 
B|-8-8-8-8----------------------------7-7--7-7-7-7-| 
G|-9-9-9-9--9--9---9--9--9--9-6-6-6-6-7-7--7-7-7-7-| 
D|-9-9-9-9-10-10--10-10-10-10-7-7-7-7-7-7--7-7-7-7-| 
A|-7-7-7-7-10-10--10-10-10-10-7-7-7-7-5-5--5-5-5-5-| 
E|----------8--8---8--8--8--8-5-5-5-5--------------| x2 
 

 
E|---------------------|    e|----------------------| 
B|---------------------|    B|----------------------| 
G|-4-4-----------------|    G|-4-4-4-4-7--7-7--7-7--| 
D|-4-4-4-4-5-7-7--7-7--|    D|-4-4-4-4-7--7-7--7-7--| 
A|-2-2-4-4-5-7-7--7-7--|    A|-2-2-2-2-5--5-5--5-5--| 
E|-----2-2-3-5-5--5-5--| x3 E|----------------------| 
 

 
E|-------------------------------| 
B|-------------------------------| 
G|-------------------------------| 
D|-------------------------------| 
A|-2---2-4-5-4-2----2-2/7-7------| 
E|-0---0-2-3-2-0----0-0-0-0------| x2 
 

 
E|-----------------------------------------------| 
B|-----------------------------------------------| 
G|-----------------4-7-7------------------4-9-9--| 
D|-----------------2-5-5------------------2-7-7--| 
A|-2-2-2-2-2-2-2-2--------2-2-2-2-2-2-2-2--------| 
E|-0-0-0-0-0-0-0-0--------0-0-0-0-0-0-0-0--------| x2 
 

 
E|---------------------------| 
B|---------------------------| 
G|--------5----5--------7----| 
D|-2----2-5----5-5----5-7----| 
A|-2----2-3----3-5----5-5----| 
E|-0----0--------3----3------| x2 
 

 
E|----------------------------------------------------------------------| 
B|----------------------------------------------------------------------| 
G|-------5-5--5-5-5-5-------7-7--7-7-7-7-------5-5--5-5-5-5-------7-7---| 
D|-2-2-2-5-5--5-5-5-5-5-5-5-7-7--7-7-7-7-2-2-2-5-5--5-5-5-5-5-5-5-7-7---| 
A|-2-2-2-3-3--3-3-3-3-5-5-5-5-5--5-5-5-5-2-2-2-3-3--3-3-3-3-5-5-5-5-5---| 
E|-0-0-0--------------3-3-3--------------0-0-0--------------3-3-3-------| 
 

 
E|-7----------------7----------------7----------------| 
B|-8----------------8----------------8----------------| 
G|-9----------------9----------------9----------------| 
D|-9----------------9----------------9----------------| 
A|-7----------------7----------------7----------------| 
E|----------------------------------------------------| 
 

 
E|-7-7-7-7-----------------------------------------| 
B|-8-8-8-8----------------------------7-7--7-7-7-7-| 
G|-9-9-9-9--9--9---9--9--9--9-6-6-6-6-7-7--7-7-7-7-| 
D|-9-9-9-9-10-10--10-10-10-10-7-7-7-7-7-7--7-7-7-7-| 
A|-7-7-7-7-10-10--10-10-10-10-7-7-7-7-5-5--5-5-5-5-| 
E|----------8--8---8--8--8--8-5-5-5-5--------------| x4 
 

 
E|---------------------|    e|-----------| 
B|---------------------|    B|-----------| 
G|-4-4-----------------|    G|-4-4-------| 
D|-4-4-4-4-5-7-7--7-7--|    D|-4-4-4-4-5-| 
A|-2-2-4-4-5-7-7--7-7--|    A|-2-2-4-4-5-| 
E|-----2-2-3-5-5--5-5--| x3 E|-----2-2-3-| 
 


| /  slide up 
| \  slide down 
| h  hammer-on 
| p  pull-off 
| ~  vibrato 
| +  harmonic 
| x  Mute note 
=============================================================================== 
		  

See also:

tabs Son Of Mordor - Collapse Of The Walls tabs Issues - Sad Ghost tabs Sebastian Bach - Falling Into You tabs Issues - Never Lose Your Flames tabs Issues - Hooligans tabs Son Of Mordor - Unknow
e-chords

Other versions:

tabs Sebastian Bach - You Dont Understand
auto scroll beats size up size down change color hide chords drawings
tab show chords e-chords YouTube Clip e-chords hide all tabs e-chords go to top tab

share