Sebastian Bach

Falling Into You

Sebastian Bach

tabs nolevel nolevel

by  ROBEPOIEL

save to print version add songbook text version e-mail correct tuner
chordsukulelecavacokeyboardtabbassdrumsharmonicaflute Guitar Pro
close

there isn't a video lesson for this song

chords

Falling Into You

	  		


Intro 

Guitar 1 
e|-------------------------------------------------------------------| 
B|---6--8--9---6-8-9--6-8-9--9br-8----6-8-10--6-8-9--6-8-9--11br-8---| 
G|---6--8------------------------------------------------------------| 
D|-------------------------------------------------------------------| 
A|---4--6------------------------------------------------------------| 
E|-------------------------------------------------------------------| 

e|---13---13-15-11---11-13-----| 
B|-------------------------14--| 
G|-----------------------------| 
D|-----------------------------| 
A|-----------------------------| 
E|-----------------------------| 

Guitar 2 
(there is actually no rhythm guitar but ill write the chords that the bass and piano play) 
e|-------------------------------------------------| 
B|-------------------------------------------------| 
G|-------6---8---5--------6---8---5----10--8---6---| 
D|---3---6---8---5----3---6---8---5----10--8---6---| 
A|---3---4---6---3----3---4---6---3----8---6---4---| 
E|---1----------------1----------------------------| 


Verse 
Mostly piano in the verse but here are the chords 

       Cm 
Here I am 
 Bb              G# 
Slippin' back in time 
 Gm             Fm 
Starin' in your eyes 
 Eb               C# 
Like it's all the same 
        Cm 
Look at you 
    Bb                 G#  
You haven't changed at all 
    Gm          Fm 
The devil's deja vu 
     Eb 
Has lead me down 
   C#             Cm 
& back into this deadly fall 


the guitar joins in with powerchord  
for the last 2 chords (C# and Cm) 


Chorus 

e|------------------------------------| 
B|------------------------------------| 
G|-------6---8---5--------6---8---5---| 
D|---3---6---8---5----3---6---8---5---| 
A|---3---4---6---3----3---4---6---3---| 
E|---1----------------1---------------| 

e|--------------------------------| 
B|--------------------------------| 
G|-------6---8---5----10--8---6---| 
D|---3---6---8---5----10--8---6---| 
A|---3---4---6---3----8---6---4---| 
E|---1----------------------------| 


Solo Rhythm Guitar 
just like the Chorus except for the last part 

e|------------------------------------| 
B|------------------------------------| 
G|-------6---8---5--------6---8---5---| 
D|---3---6---8---5----3---6---8---5---| 
A|---3---4---6---3----3---4---6---3---| 
E|---1----------------1---------------| 

e|------------------------------------| 
B|------------------------------------| 
G|-------6---8---5--------6---8---8---| 
D|---3---6---8---5----3---6---8---8---| 
A|---3---4---6---3----3---4---6---6---| 
E|---1----------------1---------------| 


Solo 

e|----------------------------------------------------------------| 
B|---16b----16pb~~--16pbr------16---------16----------------------| 
G|-------------------------------15b------15b----15pbr-15b-15b----| 
D|----------------------------------------------------------------| 
A|----------------------------------------------------------------| 
E|----------------------------------------------------------------| 

e|----------15b-15b-13-16b----16--18b-18pb--18pbr----| 
B|---16b---------------------------------------------| 
G|---------------------------------------------------| 
D|---------------------------------------------------| 
A|---------------------------------------------------| 
E|---------------------------------------------------| 

e|---18-16-18-18~-16-18-16-18-18~--16-18--16-18b--18pb--------------------| 
B|------------------------------------------------------------------------| 
G|-------------------------------------------------------------6p5--------| 
D|-------------------------------------------------------10*-------8-6----| 
A|------------------------------------------------------------------------| 
E|------------------------------------------------------------------------| 
                                              dive bomb* 

Bridge 

e|----------------------------------------------| 
B|----------------------------------------------| 
G|---6-6-6-6-6-----8-8-8-8-8-----10-----8--6----| 
D|---6-6-6-6-6-----8-8-8-8-8-----10-----8--6----| 
A|---4-4-4-4-4-----6-6-6-6-6-----8------6--4----| 
E|----------------------------------------------| 

e|--------------------------------------------------| 
B|--------------------------------------------------| 
G|---8-8-8-8-8-----6-6-6-6-6-----8-8-8-8-8-8-8-8----| 
D|---8-8-8-8-8-----6-6-6-6-6-----8-8-8-8-8-8-8-8----| 
A|---6-6-6-6-6-----4-4-4-4-4-----6-6-6-6-6-6-6-6----| 
E|--------------------------------------------------| 


the piano ending would be something like this on guitar 
e|----------------------------------| 
B|----------------------------------| 
G|---------8---------8--------------| 
D|------6---------6--------6--------| 
A|---4---------4--------4-----------| 
E|----------------------------------| 




 
		  

Full key step upFull key step up
Half key step upHalf key step up
Half key step downHalf key step down
Full key step downFull key step down
hide glossary

See also:

tabs Sebastian Bach - You Dont Understand tabs Issues - Sad Ghost tabs Issues - Never Lose Your Flames tabs Son Of Mordor - Viking March tabs Son Of Mordor - Collapse Of The Walls tabs Issues - Hooligans
e-chords

Other versions:

tabs Sebastian Bach - Falling Into You
auto scroll beats size up size down change color hide chords drawings
tab show chords e-chords YouTube Clip e-chords hide all tabs e-chords go to top tab

share with facebook