Sean Kingston

Beat It

Sean Kingston

tabs Beginner beginner

by  ACELOT

save to print version add songbook text version e-mail correct tuner
chordsukulelecavacokeyboardtabbassdrumsharmonicaflute Guitar Pro
close
beat-it-by-sean-kingston

there is a video lesson for this song

chords

Beat It

	  		
Intro / Verse 

e|-15h16-13h15-8/11-15h16-13h15-8/11----------| 
B|-----------------------------------11/13-11-| 
G|--------------------------------------------| 
D|--------------------------------------------| 
A|--------------------------------------------| 
E|--------------------------------------------| 

e|-15h16-13h15-8/11-15h16-13h15-8/11----------| 
B|-----------------------------------11/13-11-| 
G|--------------------------------------------| 
D|--------------------------------------------| 
A|--------------------------------------------| 
E|--------------------------------------------| 

Interlude 

e|-16-15---------------------------------| 
B|------16-13----------------------------| 
G|------------15-13-12-------------------| 
D|---------------------13-10-8-6-5-------| 
A|---------------------------------6-3---| 
E|-------------------------------------4-| 

Outro 

e|-16-15-----------------------------------------------------15-16-| 
B|------16-13------------------------------------------13-16-------| 
G|------------15-13-12---------------------------12-13-------------| 
D|---------------------13-10-8-6-5---------10-13-------------------| 
A|---------------------------------6-3-----------------------------| 
E|-------------------------------------4---------------------------| 

e|-16-15---------------------------------| 
B|------16-13----------------------------| 
G|------------15-13-12-------------------| 
D|---------------------13-10-8-6-5-------| 
A|---------------------------------6-3---| 
E|-------------------------------------4-| 
		  

See also:

tabs Akon - Lonely (Acoustic Tab) tabs Papa Roach - Scars (ver.2) tabs Papa Roach - Broken home tabs Usher - Bad Girl (ver. 2) tabs D12 - My Band tabs Usher - My Boo (intro)
e-chords

Other versions:

tabs Michael Jackson - Beat it tabs Fall Out Boy - Beat It tabs Sean Kingston - Beat It tabs Sungha Jung - Beat It tabs Michael Jackson - Beat It (ver. 2) tabs Korn - Beat It UpRight
auto scroll beats size up size down change color hide chords drawings
tab show chords e-chords YouTube Clip e-chords hide all tabs e-chords go to top tab

share