Seahaven

home > Seahaven

Understanding Tab

Seahaven

Difficulty: nolevelnolevel

by adalgomes

tuner correct add songbook print version text version save to e-mail
chordsukulelecavacokeyboardtabbassdrumsharmonicsflute Guitar Pro
chords

Understanding

  		 
 
acoustic: no capo 


intro guitar 1 

e|---------------------------------------------------------------------------| 
B|---------------------------------------------------------------------------| 
G|--9-9--9-9--6-6--6-6--6-6--6-6--6-6--6-6-----------------------------------| 
D|--7-7--7-7--7-7--7-7--7-7--7-7--7-7--7-7-----------------------------------| 
A|--9-9--9-9--7-7--7-7--7-7--7-7--0-0--0-0-----------------------------------| 
D|---------------------------------------------------------------------------| 

really simple strumming pattern, you will figure it out easily if you mess around a bit 

guitar 2 intro 

e|---------------------------------------------------------------------------| 
B|----------14-------------------17------------------------------14----------| 
G|----14-------14----------14-------14------(x2 and end on)---14----14-------| 
D|-16----16-------14----14----14-------14------------------------------------| 
A|---------------------------------------------------------------------------| 
D|---------------------------------------------------------------------------| 

verse guit 1 & 2 

e|---------------------------------------------------------------------------| 
B|---------------------------------------------------------------------------| 
G|-7-x-7-7-x-7-x-7-7-x--9-x-9-9-x-9-x-9-9-x-6-6-6-x--------------------------| 
D|-0-x-0-0-x-0-x-0-0-x--7-x-7-7-x-7-x-7-7-x-4-4-4-x--------------------------| 
A|-0-x-0-0-x-0-x-0-0-x--7-x-7-7-x-7-x-7-7-x-4-4-4-x--------------------------| 
D|-0-x-0-0-x-0-x-0-0-x--7-x-7-7-x-7-x-7-7-x-4-4-4-x--------------------------| 

also a really simple strumming pattern here, just listen to the song, youll get it. 
in the second verse guitar 2 strums a lot more dead notes though. 

Chorus guit 1 and 2 

e|---------------------------------------------------------------------------| 
B|---------------------------------------------------------------------------| 
G|-9-9-9-9-------------------------------------------------------------------| 
D|-0-0-0-0-11-11-11-11-11-11-11-11-7-7-7-7-----------------------------------| 
A|-0-0-0-0-7--7--7--7--7--7--7--7--4-4-4-4-----------------------------------| 
D|-0-0-0-0-7--7--7--7--7--7--7--7--4-4-4-4-----------------------------------| 

bridge 

part 1: guitar 2 only 

e|---------------------------------------------------------------------------| 
B|----(i think the top 2 strings are palm muted)-----------------------------| 
G|---------------------------------------------------------------------------| 
D|---2--2--2--2/4/2p0---2--2--2--0-----2--2--2--2/4/2p0----2--2--2444--------| 
A|--0--0--0--0---------0--0--0--4-4---0--0--0--0----------0--0--0-444--------| 
D|-0--2--4--2---------0--2--4--2-----0--2--4--2----------0--2--4--444--------| 

part 2: guit 1&2 

e|---------------------------------------------------------------------------| 
B|---------------------------------------------------------------------------| 
G|---------------------------------------------------------------------------| 
D|-0-2-4-2------------------0-2-4--------------------------------------------| 
A|-0-2-4-2--(x3 and end on)-0-2-4--------------------------------------------| 
D|-0-2-4-2------------------0-2-4--------------------------------------------| 

outro 

e|---------------------------------------------------------------------------| 
B|---------------------------------------------------------------------------| 
G|---9---6-6-----------------------------------------------------------------| 
D|--7---7--7-----------------------------------------------------------------| 
A|-9---7---0-----------------------------------------------------------------| 
D|---------------------------------------------------------------------------| 
	  

Search Paypal
auto scroll beats size up size down change color hide chords drawings
tab show chords e-chords YouTube Clip e-chords hide all tabs e-chords go to top tab