Seahaven

On The Floor

Seahaven

tabs Expert expert

by  EDUCASTILHO

save to print version add songbook text version e-mail correct tuner
chordsukulelecavacokeyboardtabbassdrumsharmonicaflute Guitar Pro
close

there isn't a video lesson for this song

chords

On The Floor

	  		

Guitar 1 
0:00-1:51 
|---------------------| 
|--6-6-6-6-6-6-6-6----| 
|--6-6-6-6-6-6-6-6----| 
|--8-8-6-6-4-4-4-4/6--| 
|---------------------| 
|---------------------| 

Guitar 1 
1:51-1:58 
|----------------| 
|--4-4-4-4p2-2~--| 
|--3-3-3-3---3~--| 
|--1-1-1-1---4~--| 
|----------------| 
|----------------| 

Guitar 1 
1:58-3:10 
|---------------------| 
|--6-6-6-6-6-6-6-6----| 
|--6-6-6-6-6-6-6-6----| 
|--8-8-6-6-4-4-4-4/6--| 
|---------------------| 
|---------------------| 

Guitar 1 
3:10-3:17 
|----------------| 
|--4-4-4-4p2-2~--| 
|--3-3-3-3---3~--| 
|--1-1-1-1---4~--| 
|----------------| 
|----------------| 

Guitar 1 
3:17-3:43 
|---------------------| 
|--6-6-6-6-6-6-6-6----| 
|--6-6-6-6-6-6-6-6----| 
|--8-8-6-6-4-4-4-4/6--| 
|---------------------| 
|---------------------| 

Guitar 1 
3:43-4:10 
|---------------------| 
|--6-6-4-4-6-6-6-6----| 
|--6-6-5-5-6-6-6-6----| 
|--6-6-4-4-3-3-3-3----| 
|---------------------| 
|---------------------| 


Guitar 2 
3:43-4:10 
|-----------------------------------| 
|-------9------7/9-6-----6----------| 
|-----10-10---8-----6-6-8--6-5-6----| 
|--/11------10----------------------| 
|-----------------------------------| 
|-----------------------------------| 
| 
|-----------------------------------| 
|-------9------7/9-6h7p6h7p6h7p6h7--| 
|-----10-10---8---------------------| 
|--/11------10----------------------| 
|-----------------------------------| 
|-----------------------------------| 
| 
|x2 

Guitar 1 
4:10-4:16 
|---------------------| 
|--6-6-6-6-4-4-4-4p2--| 
|--6-6-6-6-3-3-3-3----| 
|--3-3-3-3-1-1-1-1----| 
|---------------------| 
|---------------------| 

Guitar 2 
4:10-4:16 
|---------------------------| 
|--6h7p6-6h7p6-6h7p6-6h7p6--| 
|---------------------------| 
|---------------------------| 
|---------------------------| 
|---------------------------| 

Guitar 1 
4:16-4:36 
|---------------------| 
|--6-6-6-6-6-6-6-6----| 
|--6-6-6-6-6-6-6-6----| 
|--8-8-6-6-4-4-4-4/6--| 
|---------------------| 
|---------------------| 

Guitar 1 
4:36-4:42 
|----------------------1~--| 
|--4-4-4-4p2--------2~-----| 
|--3-3-3-3------1-3~-------| 
|--1-1-1-1---4-4~----------| 
|--------------------------| 
|--------------------------| 

Guitar 1 
4:42-4:53 
|---------------------| 
|--6-6-6-6-6-6-6-6----| 
|--6-6-6-6-6-6-6-6----| 
|--8-8-6-6-4-4-4-4----| 
|---------------------| 
|---------------------| 
| 
|-------------1~------| 
|--6-6-6-6---2~-------| 
|--6-6-6-6--3~--------| 
|--8-8-6-6-4~---------| 
|---------------------| 
|---------------------| 

Guitar 1 Very Quietly 
5:00-End} 
|--8--------9---------6----------| 
|-----6--------6----------9------| 
|--------6--------6--------------| 
|--------------------------------| 
|--------------------------------| 
|--------------------------------| 
		  

See also:

tabs Seahaven - Save Me tabs Los Campesinos - Cemetery Gaits tabs Owen - No Language tabs Keaton Henson - Lying To You Tab tabs Seahaven - Love To Burn tabs John Smith - There Is A Stone
e-chords

Other versions:

tabs Seahaven - On The Floor
auto scroll beats size up size down change color hide chords drawings
tab show chords e-chords YouTube Clip e-chords hide all tabs e-chords go to top tab

share