Seahaven

Fifty-four

Seahaven

tabs

by  CARLLUZ

save to print version add songbook text version e-mail correct tuner
chordsukulelecavacokeyboardtabbassdrumsharmonicaflute Guitar Pro
close

there isn't a video lesson for this song

chords

Fifty-four

	  		

Pretty simple intro to this awesome album, just listen to the song for the timing. 

e|-----------------------|--|------------------| 
B|-----------------------|--|------------------| 
G|------------0----------|x5|------------------| 
D|-----4----------4------|--|---------7--------| 
A|---------5----------5--|--|------------------| 
D|-0---------------------|--|-0---0------0-----| 


e|---------------------------------------------| 
B|---------------------------------------------| 
G|-9---7---6--7---6----------------------------|  x4 
D|--------------------9----------7----------7--| 
A|---------------------------------------------| 
D|-----------------------0---0------0---0------| 


e|-------------------------------------------| 
B|-------------------------------------------| 
G|------------0------------------------------|   x2 
D|-----4----------4-------------7---------7--| 
A|---------5----------5----------------------| 
D|-0---------------------0---0-----0---0-----| 


e|----------------------------------------| 
B|----------------------------------------| 
G|------------0---------------------------| 
D|-----4----------4-----------------------| 
A|---------5----------5-------------------| 
D|-0---------------------(0)--------------| 



************************************ 

| /   slide up 
| \   slide down 
| h   hammer-on 
| p   pull-off 
| ~   vibrato 
| +   harmonic 
| x   Mute note 
| b   Bend 
| pb  Pre-bend 
| br  Bend release 
| pbr Pre-bend release 
| brb Bend release bend 

************************************ 
		  

See also:

tabs Seahaven - Save Me tabs Los Campesinos - Cemetery Gaits tabs Owen - No Language tabs Keaton Henson - Lying To You Tab tabs Seahaven - Love To Burn tabs John Smith - There Is A Stone
e-chords

Other versions:

tabs Seahaven - Fifty-four
auto scroll beats size up size down change color hide chords drawings
tab show chords e-chords YouTube Clip e-chords hide all tabs e-chords go to top tab

share