Scorpions

home > Scorpions

Wild Child Tab

Scorpions

Difficulty: AdvancedAdvanced

by Andre020182

tuner correct add songbook print version text version save to e-mail
chordsukulelecavacokeyboardtabbassdrumsharmonicsflute Guitar Pro
chords

Wild Child

Year: 1996 - Album: Platinum Collection

  		Scorpions 
Wild Child  
 
 
e||--------------------|-----------------------| 
B||--------------------|-----------------------| 
G||--------------2--4--|--6----6----4--2----6--| 
D||--------------2--2--|--4----4----2--2----4--| 
A||--------------------|-----------------------| 
E||--------------------|-----------------------| 
 
                                                                          
-----------------------|-----------------------|------------------------| 
-----------------------|-----------------------|------------------------| 
----4--2----4----2--4--|--6----6----4--2----9--|----9--9--4----2--4--2--| 
----2--2----2----2--2--|--4----4----2--2----7--|----7--7--2----2--2--2--| 
-----------------------|-----------------------|------------------------| 
-----------------------|-----------------------|------------------------| 
 
                                                                         
-----------------------|-----------------------|-----------------------| 
-----------------------|-----------------------|-----------------------| 
--6----6----4--2----6--|----4--2----4----2--4--|--6----6----4--2----9--| 
--4----4----2--2----4--|----2--2----2----2--2--|--4----4----2--2----7--| 
-----------------------|-----------------------|-----------------------| 
-----------------------|-----------------------|-----------------------| 
 
                                                                                
------------------------|--------------------------|--------------------------| 
------------------------|--------------------------|--------------------------| 
----9--9--4----2--4--2--|--6--6-----------------4--|-----------------2--4--2--| 
----7--7--2----2--2--2--|--4--4--4--4--4--4--4--2--|--2--2--2--2--2--2--2--2--| 
------------------------|--------------------------|--------------------------| 
------------------------|--------------------------|--------------------------| 
 
                                                       
--------------------------|--------------------------| 
--------------------------|--------------------------| 
--6--6-----------------4--|-----------------2--4--2--| 
--4--4--4--4--4--4--4--2--|--2--2--2--2--2--2--2--2--| 
--------------------------|--------------------------| 
--------------------------|--------------------------| 
 
                                                       
--------------------------|--------------------------| 
--------------------------|--------------------------| 
--6--6-----------------4--|-----------------2--4--2--| 
--4--4--4--4--4--4--4--2--|--2--2--2--2--2--2--2--2--| 
--------------------------|--------------------------| 
--------------------------|--------------------------| 
 
                                                                             
--------------------------|------------------------|-----------------------| 
--------------------------|------------------------|-----------------------| 
--6--6-----------------4--|----4----4--4--4--4--4--|--6----6----4--2----6--| 
--4--4--4--4--4--4--4--2--|----2----2--2--2--2--2--|--4----4----2--2----4--| 
--------------------------|------------------------|-----------------------| 
--------------------------|------------------------|-----------------------| 
 
                                                                          
-----------------------|-----------------------|------------------------| 
-----------------------|-----------------------|------------------------| 
----4--2----4----2--4--|--6----6----4--2----9--|----9--9--4----2--4--2--| 
----2--2----2----2--2--|--4----4----2--2----7--|----7--7--2----2--2--2--| 
-----------------------|-----------------------|------------------------| 
-----------------------|-----------------------|------------------------| 
 
                                                       
--------------------------|--------------------------| 
--------------------------|--------------------------| 
--6--6-----------------4--|-----------------2--4--2--| 
--4--4--4--4--4--4--4--2--|--2--2--2--2--2--2--2--2--| 
--------------------------|--------------------------| 
--------------------------|--------------------------| 
 
                                                       
--------------------------|--------------------------| 
--------------------------|--------------------------| 
--6--6-----------------4--|-----------------2--4--2--| 
--4--4--4--4--4--4--4--2--|--2--2--2--2--2--2--2--2--| 
--------------------------|--------------------------| 
--------------------------|--------------------------| 
 
                                                       
--------------------------|--------------------------| 
--------------------------|--------------------------| 
--6--6-----------------4--|-----------------2--4--2--| 
--4--4--4--4--4--4--4--2--|--2--2--2--2--2--2--2--2--| 
--------------------------|--------------------------| 
--------------------------|--------------------------| 
 
                                                                          
--------------------------|-------------------------|-------------------| 
--------------------------|-------------------------|-------------------| 
--6--6-----------------4--|----4--4--4--4--4--4--4--|--4----------------| 
--4--4--4--4--4--4--4--2--|----2--2--2--2--2--2--2--|--2----------------| 
--------------------------|-------------------------|-------------------| 
--------------------------|-------------------------|-------------------| 
 
                                                                         
-----------------------|-----------------------|-----------------------| 
----------3------3--3--|-----------------------|----------3------3--3--| 
----------2------2--2--|--2--2----4------4--4--|----------2------2--2--| 
--4--4----0------0--0--|--2--2----2------2--2--|--4--4----0------0--0--| 
--4--4-----------------|--0--0-----------------|--4--4-----------------| 
--2--2-----------------|-----------------------|--2--2-----------------| 
 
                                                                         
-----------------------|-----------------------|-----------------------| 
-----------------------|----------3------3--3--|-----------------------| 
--2--2----4------4--4--|----------2------2--2--|--2--2----4------4--4--| 
--2--2----2------2--2--|--4--4----0------0--0--|--2--2----2------2--2--| 
--0--0-----------------|--4--4-----------------|--0--0-----------------| 
-----------------------|--2--2-----------------|-----------------------| 
 
                                                                                
-----------------------|-------------|------------------|---------------------| 
----------3------3--3--|-------------|------------------|---------------------| 
----------2------2--2--|--2--2-------|------------------|---------------2--4--| 
--4--4----0------0--0--|--2--2----2--|------------------|--2------------2--2--| 
--4--4-----------------|--0--0----2--|------------------|--2------------------| 
--2--2-----------------|----------0--|------------------|--0------------------| 
 
                                                                         
-----------------------|-----------------------|-----------------------| 
-----------------------|-----------------------|-----------------------| 
--6----6----4--2----6--|----4--2----4----2--4--|--6----6----4--2----9--| 
--4----4----2--2----4--|----2--2----2----2--2--|--4----4----2--2----7--| 
-----------------------|-----------------------|-----------------------| 
-----------------------|-----------------------|-----------------------| 
 
                                                                               
------------------------|--------------------------|--------------------------| 
------------------------|--------------------------|--------------------------| 
----9--9--4----2--4--2--|--6--6-----------------4--|-----------------2--4--2--| 
----7--7--2----2--2--2--|--4--4--4--4--4--4--4--2--|--2--2--2--2--2--2--2--2--| 
------------------------|--------------------------|--------------------------| 
------------------------|--------------------------|--------------------------| 
 
                                                       
--------------------------|--------------------------| 
--------------------------|--------------------------| 
--6--6-----------------4--|-----------------2--4--2--| 
--4--4--4--4--4--4--4--2--|--2--2--2--2--2--2--2--2--| 
--------------------------|--------------------------| 
--------------------------|--------------------------| 
 
                                                       
--------------------------|--------------------------| 
--------------------------|--------------------------| 
--6--6-----------------4--|-----------------2--4--2--| 
--4--4--4--4--4--4--4--2--|--2--2--2--2--2--2--2--2--| 
--------------------------|--------------------------| 
--------------------------|--------------------------| 
 
                                                                          
--------------------------|-------------------------|-------------------| 
--------------------------|-------------------------|-------------------| 
--6--6-----------------4--|----4--4--4--4--4--4--4--|--4----------------| 
--4--4--4--4--4--4--4--2--|----2--2--2--2--2--2--2--|--2----------------| 
--------------------------|-------------------------|-------------------| 
--------------------------|-------------------------|-------------------| 
 
                                                                         
-----------------------|-----------------------|-----------------------| 
----------3------3--3--|-----------------------|----------3------3--3--| 
----------2------2--2--|--2--2----4------4--4--|----------2------2--2--| 
--4--4----0------0--0--|--2--2----2------2--2--|--4--4----0------0--0--| 
--4--4-----------------|--0--0-----------------|--4--4-----------------| 
--2--2-----------------|-----------------------|--2--2-----------------| 
 
                                                                        
-----------------------|-----------------------|-----------------------| 
-----------------------|----------3------3--3--|-----------------------| 
--2--2----4------4--4--|----------2------2--2--|--2--2----4------4--4--| 
--2--2----2------2--2--|--4--4----0------0--0--|--2--2----2------2--2--| 
--0--0-----------------|--4--4-----------------|--0--0-----------------| 
-----------------------|--2--2-----------------|-----------------------| 
 
                                                                        
-----------------------|---------------------|------------------------| 
----------3------3--3--|---------------------|------------------------| 
----------2------2--2--|--2--2---------------|------------------------| 
--4--4----0------0--0--|--2--2----2----------|------------------------| 
--4--4-----------------|--0--0----2----------|--7--6--9--7----2--4----| 
--2--2-----------------|----------0----------|--5--4--7--5----0--2----| 
 
                                                                            
------------------------|-------------------------|-----------------------| 
------------------------|-------------------------|-----------------------| 
------------------------|-------------------------|-----------------------| 
--2--4----2--4----------|----------------------2--|--4----2--4------------| 
--2--4----2--4----6--6--|--7--9--7--6--2--4----2--|--4----2--4------6--6--| 
--0--2----0--2----4--4--|--5--7--5--4--0--2----0--|--2----0--2------4--4--| 
 
                                                                            
------------------------|-----------------------|-------------------------| 
------------------------|-----------------------|-------------------------| 
------------------------|-----------------------|-------------------------| 
------------------9--7--|----2--2----4----------|----------------------2--| 
--9--7----9--7----9--7--|----2--2----4----6--6--|--7--9--7--6--2--4----2--| 
--7--5----7--5----------|----0--0----2----4--4--|--5--7--5--4--0--2----0--| 
 
                                                                         
-----------------------|-----------------------|-----------------------| 
-----------------------|-----------------------|-----------------------| 
-----------------6--6--|--6----6----4--2----6--|----4--2----4----2--4--| 
--4----4--2------4--4--|--4----4----2--2----4--|----2--2----2----2--2--| 
--4----4--2------------|-----------------------|-----------------------| 
--2----2--0------------|-----------------------|-----------------------| 
 
                                                                         
-----------------------|-----------------------|-----------------------| 
-----------------------|-----------------------|-----------------------| 
--6----6----4--2----9--|----9----4----2--4--2--|--6----6----4--2----6--| 
--4----4----2--2----7--|----7----2----2--2--2--|--4----4----2--2----4--| 
-----------------------|-----------------------|-----------------------| 
-----------------------|-----------------------|-----------------------| 
 
                                                                      
-----------------------|-----------------------|--------------------| 
-----------------------|-----------------------|--------------------| 
----4--2----4----2--4--|--6----6----4--2----9--|----9----4----------| 
----2--2----2----2--2--|--4----4----2--2----7--|----7----2----------| 
-----------------------|-----------------------|--------------------| 
-----------------------|-----------------------|--------------------| 
 
                                                                            
------------------------|------------------------|------------------------| 
------------------------|------------------------|------------------------| 
------------------------|------------------------|------------------------| 
------------------------|--2--4----2--4----------|------------------------| 
--7--6--9--7----2--4----|--2--4----2--4----6--6--|--9--7----9--7----9--7--| 
--5--4--7--5----0--2----|--0--2----0--2----4--4--|--7--5----7--5----7--5--| 
 
                                                                          
-----------------------|------------------------|-----------------------| 
-----------------------|------------------------|-----------------------| 
-----------------------|--2--4----2--4----2--4--|-----------------------| 
----2--2----4----------|--2--4----2--4----2--4--|----2--2----4----------| 
----2--2----4----6--6--|------------------------|----2--2----4----6--6--| 
----0--0----2----4--4--|------------------------|----0--0----2----4--4--| 
 
                                                                        
------------------------|---------------------|-----------------------| 
------------------------|---------------------|----------3------3--3--| 
------------------------|---------------------|----------2------2--2--| 
--9--7----9/-7----2--4--|----2--4----2--------|--4--4----0------0--0--| 
--9--7----9/-7----2--4--|----2--4----2--------|--4--4-----------------| 
--7--5----7/-5----0--2--|----0--2----0--------|--2--2-----------------| 
 
                                                                         
-----------------------|-----------------------|-----------------------| 
-----------------------|----------3------3--3--|-----------------------| 
--2--2----4------4--4--|----------2------2--2--|--2--2----4------4--4--| 
--2--2----2------2--2--|--4--4----0------0--0--|--2--2----2------2--2--| 
--0--0-----------------|--4--4-----------------|--0--0-----------------| 
-----------------------|--2--2-----------------|-----------------------| 
 
                                                                         
-----------------------|-----------------------|-----------------------| 
----------3------3--3--|-----------------------|----------3------3--3--| 
----------2------2--2--|--2--2----4------4--4--|----------2------2--2--| 
--4--4----0------0--0--|--2--2----2------2--2--|--4--4----0------0--0--| 
--4--4-----------------|--0--0-----------------|--4--4-----------------| 
--2--2-----------------|-----------------------|--2--2-----------------| 
 
                                                                           
------------------------|-----------------------|------------------------| 
------------------------|----------3------3--3--|------------------------| 
--2--2----4----4--4--4--|----------2------2--2--|--2--2----4----4--4--4--| 
--2--2----2----2--2--2--|--4--4----0------0--0--|--2--2----2----2--2--2--| 
--0--0------------------|--4--4-----------------|--0--0------------------| 
------------------------|--2--2-----------------|------------------------| 
 
                                                                         
-----------------------|-----------------------|-----------------------| 
----------3------3--3--|-----------------------|----------3------3--3--| 
----------2------2--2--|--2--2----4------4--4--|----------2------2--2--| 
--4--4----0------0--0--|--2--2----2------2--2--|--4--4----0------0--0--| 
--4--4-----------------|--0--0-----------------|--4--4-----------------| 
--2--2-----------------|-----------------------|--2--2-----------------| 
 
                                                                       
-----------------------|-----------------------|---------------------| 
-----------------------|----------3------3--3--|---------------------| 
--2--2----4------4--4--|----------2------2--2--|--2--2----4----------| 
--2--2----2------2--2--|--4--4----0------0--0--|--2--2----2----------| 
--0--0-----------------|--4--4-----------------|--0--0---------------| 
-----------------------|--2--2-----------------|---------------------| 
 
                                                                        
----------0------0----|------------------------|----------0------0----| 
----------3------3----|--3--3------------------|----------3------3----| 
----------2------2----|--2--2----4----4--4--4--|----------2------2----| 
--4--4----0------0----|--0--0----2----2--2--2--|--4--4----0------0----| 
--4--4----------------|--0--0------------------|--4--4----------------| 
--2--2----------------|------------------------|--2--2----------------| 
 
                                                                          
------------------------|----------0------0----|------------------------| 
--3--3------------------|----------3------3----|--3--3------------------| 
--2--2----4----4--4--4--|----------2------2----|--2--2----4----4--4--4--| 
--0--0----2----2--2--2--|--4--4----0------0----|--0--0----2----2--2--2--| 
--0--0------------------|--4--4----------------|--0--0------------------| 
------------------------|--2--2----------------|------------------------| 
 
                                                                          
----------0------0----|------------------------|----------0----0--0--0--| 
----------3------3----|--3--3------------------|----------3----3--3--3--| 
----------2------2----|--2--2----4----4--4--4--|----------2----2--2--2--| 
--4--4----0------0----|--0--0----2----2--2--2--|--4--4----0----0--0--0--| 
--4--4----------------|--0--0------------------|--4--4------------------| 
--2--2----------------|------------------------|--2--2------------------| 
 
                                                                           
------------------------|----------0------0--0--|------------------------| 
--3--3------------------|----------3------3--3--|------------------------| 
--2--2----4----4--4--4--|----------2------2--2--|--2--2------------------| 
--0--0----2----2--2--2--|--4--4----0------0--0--|--2--2----2----2--2--2--| 
--0--0------------------|--4--4-----------------|--0--0----2----2--2--2--| 
------------------------|--2--2-----------------|----------0----0--0--0--| 
 
                                                                           
----------0----0--0--0--|------------------------|-----------------------| 
----------3----3--3--3--|--3--3------------------|----------3------3--3--| 
----------2----2--2--2--|--2--2----4----4--4--4--|----------2------2--2--| 
--4--4----0----0--0--0--|--0--0----2----2--2--2--|--4--4----0------0--0--| 
--4--4------------------|--0--0------------------|--4--4-----------------| 
--2--2------------------|------------------------|--2--2-----------------| 
 
                                                                               
--------------|--------------------|--------------------|--------------------| 
-----------9--|-----------------9--|-----------------9--|-----------------9--| 
--2--2--9--9--|-----------------9--|-----------------9--|-----------------9--| 
--2--2--9--9--|-----------------9--|-----------------9--|-----------------9--| 
--0--0--7--7--|------------0/---7--|------------0/---7--|------------0/---7--| 
--------------|------------0/------|------------0/------|------------0/------| 
 
                                                                
--------------------|--------------------|--------------------| 
-----------------9--|-----------------9--|-----------------9--| 
-----------------9--|-----------------9--|-----------------9--| 
-----------------9--|-----------------9--|-----------------9--| 
------------0/---7--|------------0/---7--|------------0/---7--| 
------------0/------|------------0/------|------------0/------| 
 
                                          
--------------------|| 
-----------------9--|| 
-----------------9--|| 
-----------------9--|| 
------------0/---7--|| 
------------0/------|| 
 
 
                                  Wild Child                                     
 
 
                                                                       Scorpions 
Guitar 2 
[email protected] 
 
|-----------------------| 
|-----------------------| 
|--6----6----4--2----6--| 
|--4----4----2--2----4--| 
|-----------------------| 
|-----------------------| 
 
                                                                          
-----------------------|-----------------------|------------------------| 
-----------------------|-----------------------|------------------------| 
----4--2----4----2--4--|--6----6----4--2----9--|----9--9--4----2--4--2--| 
----2--2----2----2--2--|--4----4----2--2----7--|----7--7--2----2--2--2--| 
-----------------------|-----------------------|------------------------| 
-----------------------|-----------------------|------------------------| 
 
                                                                   
---------------------|---------------------|---------------------| 
---------------------|---------------------|---------------------| 
---------------------|---------------------|---------------------| 
--4--4------------2--|------------2--2--2--|--4--4------------2--| 
--4--4------------2--|------------0--2--2--|--4--4------------2--| 
--2--2------------0--|------------0--0--0--|--2--2------------0--| 
 
                                                                   
---------------------|---------------------|---------------------| 
---------------------|---------------------|---------------------| 
---------------------|---------------------|---------------------| 
------------2--2--2--|--4--4------------2--|------------2--2--2--| 
------------0--2--2--|--4--4------------2--|------------0--2--2--| 
------------0--0--0--|--2--2------------0--|------------0--0--0--| 
 
                                                                                
---------------------| 
---------------------| 
---------------------| 
--4--4------------2--| 
--4--4------------2--| 
--2--2------------0--| 
 
                                                                   
---------------------|---------------------|---------------------| 
---------------------|---------------------|---------------------| 
---------------------|---------------------|---------------------| 
------------2--2--2--|--4--4------------2--|------------2--2--2--| 
------------0--2--2--|--4--4------------2--|------------0--2--2--| 
------------0--0--0--|--2--2------------0--|------------0--0--0--| 
 
                                                                   
---------------------|---------------------|---------------------| 
---------------------|---------------------|---------------------| 
---------------------|---------------------|---------------------| 
--4--4------------2--|------------2--2--2--|--4--4------------2--| 
--4--4------------2--|------------0--2--2--|--4--4------------2--| 
--2--2------------0--|------------0--0--0--|--2--2------------0--| 
 
                                                                  
|-----2--------0--2--------| 
|--------2-----------3-----| 
|-----------------------2--| 
|--4--------0--------------| 
|--------------------------| 
|--------------------------| 
 
                                                         
----------------------------|-----2--------0--2--------| 
----------------------------|--------2-----------3-----| 
-----6--7--6-7-6------------|-----------------------2--| 
--7--------------9--6-------|--4--------0--------------| 
-----------------------7/---|--------------------------| 
----------------------------|--------------------------| 
 
                                                             
--------------------------------|-----2--------0--2--------| 
----------------------9--10--9/-|--------2-----------3-----| 
-----6--7--6-7-6----------------|-----------------------2--| 
--7-----------------9-----------|--4--------0--------------| 
-----------------11-------------|--------------------------| 
--------------------------------|--------------------------| 
 
                                                                       
----------------------------|-----2--------0--2--------|-------------| 
----------------------------|--------2-----------3-----|-------------| 
-----6--7--6-7-6------------|-----------------------2--|--6--6----9--| 
--7--------------9--6-------|--4--------0--------------|--7--7----9--| 
-----------------------7/---|--------------------------|----------7--| 
----------------------------|--------------------------|-------------| 
 
                                                               
|-----------------------| 
|-----------------------| 
|--6----6----4--2----6--| 
|--4----4----2--2----4--| 
|-----------------------| 
|-----------------------| 
 
                                                                         
-----------------------|-----------------------|------------------------| 
-----------------------|-----------------------|------------------------| 
----4--2----4----2--4--|--6----6----4--2----9--|----9--9--4----2--4--2--| 
----2--2----2----2--2--|--4----4----2--2----7--|----7--7--2----2--2--2--| 
-----------------------|-----------------------|------------------------| 
-----------------------|-----------------------|------------------------| 
 
                                                                   
---------------------|---------------------|---------------------| 
---------------------|---------------------|---------------------| 
---------------------|---------------------|---------------------| 
--4--4------------2--|------------2--2--2--|--4--4------------2--| 
--4--4------------2--|------------0--2--2--|--4--4------------2--| 
--2--2------------0--|------------0--0--0--|--2--2------------0--| 
 
                                                                   
---------------------|---------------------|---------------------| 
---------------------|---------------------|---------------------| 
---------------------|---------------------|---------------------| 
------------2--2--2--|--4--4------------2--|------------2--2--2--| 
------------0--2--2--|--4--4------------2--|------------0--2--2--| 
------------0--0--0--|--2--2------------0--|------------0--0--0--| 
 
                                                             
---------------------| 
---------------------| 
---------------------| 
--4--4------------2--| 
--4--4------------2--| 
--2--2------------0--| 
 
                                                         
-----2--------0--2--------|----------------------------| 
--------2-----------3-----|----------------------------| 
-----------------------2--|-----6--7--6-7-6------------| 
--4--------0--------------|--7--------------9--6-------| 
--------------------------|-----------------------7/---| 
--------------------------|----------------------------| 
 
                                                             
-----2--------0--2--------|--------------------------------| 
--------2-----------3-----|----------------------9--10--9/-| 
-----------------------2--|-----6--7--6-7-6----------------| 
--4--------0--------------|--7-----------------9-----------| 
--------------------------|-----------------11-------------| 
--------------------------|--------------------------------| 
 
                                                         
-----2--------0--2--------|----------------------------| 
--------2-----------3-----|----------------------------| 
-----------------------2--|-----6--7--6-7-6------------| 
--4--------0--------------|--7--------------9--6-------| 
--------------------------|-----------------------7/---| 
--------------------------|----------------------------| 
 
                                                                     
-----2--------0--2--------|---------------------| 
--------2-----------3-----|---------------------| 
-----------------------2--|--6--6----9----------| 
--4--------0--------------|--7--7----9----------| 
--------------------------|----------7----------| 
--------------------------|---------------------| 
 
 
                                                         
-----2--------0--2--------|----------------------------| 
--------2-----------3-----|----------------------------| 
-----------------------2--|-----6--7--6-7-6------------| 
--4--------0--------------|--7--------------9--6-------| 
--------------------------|-----------------------7/---| 
--------------------------|----------------------------| 
 
                                                             
-----2--------0--2--------|--------------------------------| 
--------2-----------3-----|----------------------9--10--9/-| 
-----------------------2--|-----6--7--6-7-6----------------| 
--4--------0--------------|--7-----------------9-----------| 
--------------------------|-----------------11-------------| 
--------------------------|--------------------------------| 
 
                                                         
-----2--------0--2--------|----------------------------| 
--------2-----------3-----|----------------------------| 
-----------------------2--|-----6--7--6-7-6------------| 
--4--------0--------------|--7--------------9--6-------| 
--------------------------|-----------------------7/---| 
--------------------------|----------------------------| 
 
                                                                  
-----2--------0--2--------| 
--------2-----------3-----| 
-----------------------2--| 
--4--------0--------------| 
--------------------------| 
--------------------------| 
 
|--------------------| 
|--------------------| 
|--9/---4------------| 
|--9/---4------------| 
|--7/---2------------| 
|--------------------| 
 
                                                                 
|-------------------------| 
|-------------------------| 
|----4--4--4--4--4--4--4--| 
|----2--2--2--2--2--2--2--| 
|-------------------------| 
|-------------------------| 
 
                                                         
-----2--------0--2--------|----------------------------| 
--------2-----------3-----|----------------------------| 
-----------------------2--|-----6--7--6-7-6------------| 
--4--------0--------------|--7--------------9--6-------| 
--------------------------|-----------------------7/---| 
--------------------------|----------------------------| 
 
                                                                         
-----2--------0--2--------|-------------------------| 
--------2-----------3-----|-------------------------| 
-----------------------2--|-----6--7--6-7-6---------| 
--4--------0--------------|--7----------------------| 
--------------------------|-------------------------| 
--------------------------|-------------------------| 
 
                                  Wild Child                                     
 
 
                                                                       Scorpions 
Guitar 3 (solo) 
[email protected] 
 
                          
--14------------14--14--| 
--19------------19------| 
------------------------| 
------------------------| 
------------------------| 
------------------------| 
 
                                                                     
-------------19-21-23-24-23-21-19----------------------19-21-23-24b| 
----19-21-22----------------------22-21-19-21-19-21-22-------------| 
-------------------------------------------------------------------| 
-------------------------------------------------------------------| 
-------------------------------------------------------------------| 
-------------------------------------------------------------------| 
 
                                                           
--24~-----24r---24--24b---|--24b-24b-24b-24b-------21-17-| 
--------------------------|------------------------------| 
--------------------------|------------------------------| 
--------------------------|------------------------------| 
--------------------------|------------------------------| 
--------------------------|------------------------------| 
 
                                
--------17-19---17~-----14----| 
--19-----------------------17-| 
------------------------------| 
------------------------------| 
------------------------------| 
------------------------------| 
 
                                                   
--16-17-16-14-16b--16-14-16-14-------------------| 
-------------------------------17-14----14----14-| 
-------------------------------------18----18----| 
-------------------------------------------------| 
-------------------------------------------------| 
-------------------------------------------------| 
 
                                                          
--------------------------------------------------------| 
-----14-17-14----14----14----14----14-------------------| 
--18----------17----18----18----18----17-16-14----14-16~| 
-----------------------------------------------16-------| 
--------------------------------------------------------| 
--------------------------------------------------------| 
 
                                             
-------------------------------------------| 
-------------------------------------------| 
--18~--16-14-16----------------------------| 
-----------------16-14---------------------| 
-----------------------16-15-12-14-14~--12-| 
-------------------------------------------| 
 
                                              
--------------------------------------------| 
--------------------------------------------| 
-----------------------------------16-14----| 
--------------------------------14-------16-| 
--14-15-14--14--15--12------16--------------| 
-----------------------14~------------------| 
 
                                                                     
------------------------------------------|------------------------| 
------------------------------------------|-----10-----------------| 
--18~--16-14-16---------------------------|--11----11b-------------| 
-----------------16-14--------------------|------------------------| 
-----------------------16-15-12-14~-14-0--|------------------------| 
------------------------------------------|------------------------| 
 
                                                                 
--------------------|-----------------------|------------------| 
--------------------|-----------------------|------------------| 
--------------11~---|--9-11-11~-------------|------------------| 
--------------------|-----------------------|------------------| 
--------------------|-----------------------|------------------| 
--------------------|-----------------------|------------------| 
 
                                                              
--14----------------|------------------|--14----------------| 
--19----------------|------------------|--19----------------| 
--------------------|------------------|--------------------| 
--------------------|------------------|--------------------| 
--------------------|------------------|--------------------| 
--------------------|------------------|--------------------| 
 
                                                                                 
----------12------12/-| 
----------17------17/-| 
----------------------| 
----------------------| 
----------------------| 
----------------------| 
 
                                                                                
--------------------------------|------------21~-----|------------19b---19-17-| 
-------------------------10--9--|--------------------|------------------------| 
-----6--7--6-7-6------9---------|--------------------|------------------------| 
--7-----------------9-----------|--------------------|------------------------| 
-----------------11-------------|--------------------|------------------------| 
--------------------------------|--------------------|------------------------| 
 
                                                         
--17-19---19-21-17----------|----------16--------------| 
----------------------------|--------------17----------| 
----------------------------|------------------16--16--| 
----------------------------|--------------------------| 
----------------------------|--------------------------| 
----------------------------|--------------------------| 
 
                                                       
----------14--------14--|----------------------------| 
------------------------|--17~-----------------------| 
--16~-------------------|--------------16-18-16--14--| 
------------------------|----------------------------| 
------------------------|----------------------------| 
------------------------|----------------------------| 
 
                                                                                 
----------------------------|--------------------------|-----------------------| 
----------------------------|--------------------------|-----------------------| 
--16~---16b-18--14~-----14--|-----9--------------------|-----------------------| 
----------------------------|--7-----9-11-9-7-9~-------|-----------------------| 
----------------------------|--------------------------|--14/---0--------------| 
----------------------------|--------------------------|-----------------------| 
 
 
|------------------------| 
|----------17r-----17-14-| 
|------------------------| 
|------------------------| 
|------------------------| 
|------------------------| 
 
                                                 
----------------------|------------19r---19-17-| 
--17-19---------------|------------------------| 
----------------------|------------------------| 
----------------------|------------------------| 
----------------------|------------------------| 
----------------------|------------------------| 
 
                                                                     
--19~---19-21-17~-----21-19-17-----|------------|------------------| 
-------------------------------19~-|------------|------------------| 
-----------------------------------|--------16--|------------------| 
-----------------------------------|------------|------------------| 
-----------------------------------|------------|------------------| 
-----------------------------------|------------|------------------| 
 
                                                                               
--------------------| 
--------------------| 
--16~---------------| 
--------------------| 
--------------------| 
--------------------| 
 
 
                                  Wild Child                                     
 
 
                                                                       Scorpions 
Reed 
[email protected] 
 
                                                                     
E||--------------------|----------------------|-----------------------| 
B||--------------------|----------------------|-----------------------| 
G||--------------2--4--|--6--------2----2--6--|--7--6--4--------2--4--| 
D||--------------------|----------------------|-----------------------| 
A||--------------------|----------------------|-----------------------| 
E||--------------------|----------------------|-----------------------| 
 
                                                                  
----------------------|----------------------| 
-------------------0--|--0-------------------| 
--6--------2----2-----|-----2--1----2--------| 
----------------------|----------------------| 
----------------------|----------------------| 
----------------------|----------------------| 
 
 
                      
----------|------------------|--------------------|-----------------------| 
----------|------------------|--------------------|-----------------------| 
----------|------------------|--------------2--4--|--6----6----4--2----6--| 
----------|------------------|--------------------|-----------------------| 
----------|------------------|--------------------|-----------------------| 
----------|------------------|--------------------|-----------------------| 
 
                                                                       
-----------------------|-----------------------|---------------------| 
-----------------------|-----------------------|---------------------| 
----4--2----4----2--4--|--6----6----4--2----9--|----9--9--4----------| 
-----------------------|-----------------------|---------------------| 
-----------------------|-----------------------|---------------------| 
-----------------------|-----------------------|---------------------| 
 
 
                                                                  
--------------------|--------------------|----------------------| 
--------------------|--------------------|----------------------| 
--------------2--4--|--6--------2--------|--6--------4----2--4--| 
--------------------|--------------------|----------------------| 
--------------------|--------------------|----------------------| 
--------------------|--------------------|----------------------| 
 
                                                                  
--------------------|----------------------|--------------------| 
--------------------|----------------------|--------------------| 
--6--------2--------|--9--------4----2--4--|--6--------2--------| 
--------------------|----------------------|--------------------| 
--------------------|----------------------|--------------------| 
--------------------|----------------------|--------------------| 
 
                                                                   
----------------------|--------------------|---------------------| 
----------------------|--------------------|---------------------| 
--6--------4----2--4--|--6--------2--------|--9------------2--4--| 
----------------------|--------------------|---------------------| 
----------------------|--------------------|---------------------| 
----------------------|--------------------|---------------------| 
 
                                                                  
--------------------|----------------------|--------------------| 
--------------------|----------------------|--------------------| 
--6--------2--------|--6--------4----2--4--|--6--------2--------| 
--------------------|----------------------|--------------------| 
--------------------|----------------------|--------------------| 
--------------------|----------------------|--------------------| 
 
                                                                    
----------------------|--------------------|----------------------| 
----------------------|--------------------|----------------------| 
--9--------4----2--4--|--6--------2--------|--6--------4----2--4--| 
----------------------|--------------------|----------------------| 
----------------------|--------------------|----------------------| 
----------------------|--------------------|----------------------| 
 
                                                                        
--------------------|-----------| 
--------------------|-----------| 
--6--------2--------|--9--------| 
--------------------|-----------| 
--------------------|-----------| 
--------------------|-----------| 
 

	  

Search Paypal
auto scroll beats size up size down change color hide chords drawings
tab show chords e-chords YouTube Clip e-chords hide all tabs e-chords go to top tab