Scorpions

home > Scorpions

Walking On The Edge Tab

Scorpions

Difficulty: nolevelnolevel

by Evans+Hossel

tuner correct add songbook print version text version save to e-mail
chordsukulelecavacokeyboardtabbassdrumsharmonicsflute Guitar Pro
chords

Walking On The Edge

Year: 1988 - Album: Savage Amusement

(Meine / Schenker)

  		 
 
 
          D       C           D        C         D 
E|-------|-------|-----------|--------|---------|-------| 
B|-------|-8-7---|-----------|-8-7-10-|-8-------|-8-7---| 
G|---7-9-|-------|---7---7-9-|--------|-----7-9-|-------| 
D|-7-----|-----7-|-5---7-----|--------|---7-----|-----7-| 
A|-------|-------|-----------|--------|---------|-------| 
E|-------|-------|-----------|--------|---------|-------| 
 
  C           D          C 
E|-----------|--------|----| 
B|-----------|-8-7-10-|-13-| 
G|---7---7-9-|--------|----| 
D|-5---7-----|--------|----| 
A|-----------|--------|----| 
E|-----------|--------|----| 
 
Ta aí o solo da música,eu tirei do dvd do scorpions living legends,qq dúvida me mandem um e-mail!!! 

	  

Full key step upFull key step up
Half key step upHalf key step up
Half key step downHalf key step down
Full key step downFull key step down
Search Paypal
auto scroll beats size up size down change color hide chords drawings
tab show chords e-chords YouTube Clip e-chords hide all tabs e-chords go to top tab