Scorpions

home > Scorpions

Virgin Killer Tab

Scorpions

Difficulty: nolevelnolevel

by Andre020182

tuner correct add songbook print version text version save to e-mail
chordsukulelecavacokeyboardtabbassdrumsharmonicsflute Guitar Pro
chords

Virgin Killer

Year: 1976 - Album: Virgin Killer

  		 
 
e:------------------------------------------------------| 
b:------------------------------------------------------| 
g:------------------------------------------------------| 
d:------------------------------------------------------| 
a:-0--0-0-6-7-6-5---3-0-3-----0--0-0-6-7-6-5------------| 
E:------------------------3--------------------0--3--4--| 
 
e:------------------------------------------------------| 
b:------------------------------------------------------| 
g:------------------------------------------------------| 
d:--------------------------------------5-4-3-----------| 
a:-0--0-0-6-7-6-5---3-0-3-----0--0-0-0------------------| 
E:------------------------3-----------------------------| 
 
--------------------------------DISCLAIMER--------------------------- 
| This file is a rough interpretation of the song. You may only use |  
| this file for private study, scholarship, or research.            | 
--------------------------------------------------------------------- 
 
 

	  

Search Paypal
auto scroll beats size up size down change color hide chords drawings
tab show chords e-chords YouTube Clip e-chords hide all tabs e-chords go to top tab