Scorpions

Under The Same Sun (ver.3)

Scorpions

tabs

by  PERETTO

save to print version add songbook text version e-mail correct tuner
chordsukulelecavacokeyboardtabbassdrumsharmonicaflute Guitar Pro
close

there isn't a video lesson for this song

chords

Under The Same Sun (ver.3)

	  		{essa é a versão do Acoustica, que os violões estão afinados um semitom abaixo, 
portanto, se você tocar as tablaturas na afinação standard (normal) , o efeito 
não será o mesmo e a música não ficará parecida, principalmente no riff da gui- 
tarra} 
 
 
Riff 
__________________________________________________________ 
 
 
Riff no Violão: 
 
   Bb          C           D 
eb|-----------|-----------|----------------------------| 
Bb|-----------|-----------|----------------------------| 
Gb|-----------|-----------|-----------------0----------| 
Db|------0----|------0----|--------0-------------------| 
Ab|----2---2--|----3---3--|------5---0-----------------| 
Eb|--2--------|--3--------|--3/5-------5---------------| 
 
 
   Bb          C           D 
eb|-----------|-----------|----------------------------| 
Bb|-----------|-----------|----------------------------| 
Gb|-----------|-----------|----------------------------| 
Db|------0----|------0----|--------0--------8-5h6-5-3~-| 
Ab|----2---2--|----3---3--|------5---0-----------------| 
Eb|--2--------|--3--------|--3/5-------5---------------| 
 
 
 
 
Riff na Guitarra: 
 
    
eb|-7~--5-7/8-7--5-7~--| 
Bb|--------------------| 
Gb|--------------------| 
Db|--------------------| 
Ab|--------------------| 
Eb|--------------------| 
 
 
eb|-10~----8-7-5--5/7~-| 
Bb|--------------------| 
Gb|--------------------| 
Db|--------------------| 
Ab|--------------------| 
Eb|--------------------| 
 
 
 
 
{se não for possível alterar sua afinação, toque este solinho 
um semitom abaixo:} 
 
 
eb|-6~--4-6/7-6--4-6~--| 
Bb|--------------------| 
Gb|--------------------| 
Db|--------------------| 
Ab|--------------------| 
Eb|--------------------| 
 
 
eb|-9~----7-6-5--4/6~--| 
Bb|--------------------| 
Gb|--------------------| 
Db|--------------------| 
Ab|--------------------| 
Eb|--------------------| 
 
{fica bem mais parecido com o original, não fica?} 
 
 
__________________________________________________________ 
 
 
Refrão: 
 
   Db        F         Db        F         Bb        Bb7       Db 
eb|---------|---------|---------|---------|---------|---------|---------| 
Bb|---------|---------|---------|---------|---------|---------|---------| 
Gb|-7-7-7-7-|---------|-7-7-7-7-|---------|-4-4-4-4-|-2-2-2-2-|-7-7-7-7-| 
Db|-7-7-7-7-|-4-4-4-4-|-7-7-7-7-|-4-4-4-4-|-4-4-4-4-|-4-4-4-4-|-7-7-7-7-| 
Ab|-5-5-5-5-|-4-4-4-4-|-5-5-5-5-|-4-4-4-4-|-2-2-2-2-|-2-2-2-2-|-5-5-5-5-| 
Eb|---------|-2-4-4-4-|---------|-2-4-4-4-|---------|---------|---------| 
 
 
 
 
Interlúdio (antes do solo) : 
 
F F    F# F#    Ab Ab    A    B    Db Db 
 
 
__________________________________________________________________________ 
 
 

		  

Full key step upFull key step up
Half key step upHalf key step up
Half key step downHalf key step down
Full key step downFull key step down
hide glossary

See also:

tabs Blind Guardian - The Bars's Song - In The Forest tabs Blind Guardian - The Bard's Soung- In The Forest tabs Scorpions - New Generation tabs Scorpions - Send Me An Angel tabs Helloween - I Want Out tabs Blind Guardian - Gandalf's Rebirth
e-chords

Other versions:

tabs Scorpions - Under the Same Sun tabs Ben Howard - Under The Same Sun tabs Scorpions - Under the same sun (tab da intro + cifra) tabs Scorpions - Under the Same Sun (ver. 2) tabs Scorpions - Under The Same Sun (ver.3)
auto scroll beats size up size down change color hide chords drawings
tab show chords e-chords YouTube Clip e-chords hide all tabs e-chords go to top tab

share