Scorpions

Under the Same Sun (ver. 2)

Scorpions

tabs

by  GALO MORTO

save to print version add songbook text version e-mail correct tuner
chordsukulelecavacokeyboardtabbassdrumsharmonicaflute Guitar Pro
close

there isn't a video lesson for this song

chords

Under the Same Sun (ver. 2)

	  		E----------------------------------------------------- 
B----------------------------------------------------- 
G-----------------0----------------------------------- 
D---0----0----0--------------------------------------- 
A--2-2--3-3--5-5-------------------------------------- 
E-2----3----5----------------------------------------- 
 
E----------------------------------------------------- 
B----------------------------------------------------- 
G-----------------0----------------------------------- 
D---0----0----0--------------------------------------- 
A--2-2--3-3--5-5----9-7-5----------------------------- 
E-2----3----5----------------------------------------- 
 
Repete-se isso 2 vezes durante a introdução. 
Quem for fa de scorpions me mandem um e-mail [email protected] 

		  

See also:

tabs Blind Guardian - The Bars's Song - In The Forest tabs Blind Guardian - The Bard's Soung- In The Forest tabs Scorpions - New Generation tabs Scorpions - Send Me An Angel tabs Helloween - I Want Out tabs Blind Guardian - Gandalf's Rebirth
e-chords

Other versions:

tabs Scorpions - Under the Same Sun tabs Ben Howard - Under The Same Sun tabs Scorpions - Under the same sun (tab da intro + cifra) tabs Scorpions - Under the Same Sun (ver. 2) tabs Scorpions - Under The Same Sun (ver.3)
auto scroll beats size up size down change color hide chords drawings
tab show chords e-chords YouTube Clip e-chords hide all tabs e-chords go to top tab

share