Scorpions

home > Scorpions

Sun In My Hand Tab

Scorpions

Difficulty: EasyEasy

by Tikarai

tuner correct add songbook print version text version save to e-mail
chordsukulelecavacokeyboardtabbassdrumsharmonicsflute Guitar Pro
chords

Sun In My Hand

Year: 1975 - Album: In Trance

(Uli Jon Roth)

  		

Intro:(repita como necessário): 

E|------------------------ 
B|12-0-12-0-12-0-12-0-12-0 
G|------------------------ 
D|------------------------ 
A|------------------------ 
E|------------------------ 

Intro Solo: 

E|15----13-15--15/17-17\15-13-10----13----/15------------------- 
B|15----13-15--15/17-17\15-13-10----13--13/15-13-10-8-10-------- 
G|12----10-12--12/14-14\12-10-7 ----10--10/12-10-7--5-7--------- 
D|----------------------------------------------------0--------- 
A|------------------------------------------------------3-5-3-10 
E|------------------------------------------------------1-3-1-10 

Pre-Verse: 

E|--------------------- 
B|--------------------- 
G|5-------3---X-------- 
D|----------------3-5-- 
A|--------------------5 
E|--------------------- 

E|------------------------------- 
B|------------------------------- 
G|-----------------------3------3 
D|3-5-3-5-3-5-3-5-3-0------------ 
A|------------------------------- 
E|------------------------------- 

Verse A: 

E|--------------------- 
B|--------------------- 
G|-------------------15 
D|---------15-15--17--- 
A|-15-17--------------- 
E|--------------------- 

E|-------------------- 
B|-------------------- 
G|-------------------- 
D|17--15-17----15---17 
A|----------17-------- 
E|-------------------- 

E|----------------------------------------------- 
B|----------------------------------------------- 
G|----------------------------------------------- 
D|----------------------------------------------- 
A|15--13-15-17-13---3--5--0-3--5--3--5--3--5--3-0 
E|----------------------------------------------- 


(Interlúdio) 
E|-------------------------- 
B|-------------------------- 
G|5--3--0------------------X 
D|--------5-3-5-3-5-3-X----X 
A|--------------------X----- 
E|--------------------X----- 
(Verse B) 


E|------------------ 
B|------------------ 
G|---3-5-5/7--10--7- 
D|5----------------- 
A|------------------ 
E|------------------ 

E|-------------- 
B|-------------- 
G|5--7---5--7--7 
D|-----8-------- 
A|-------------- 
E|-------------- 

E|--------------------- 
B|--------------------- 
G|3---5---7------------ 
D|----------8---5---7/5 
A|--------------------- 
E|--------------------- 

Solo: 
E|-------------------------------------------- 
B|-------------------------------------------- 
G|12----15-12-15-12-15-12-15-12-15-12--X-4-4-4 
D|-------------------------------------------- 
A|10------------------------------------------ 
E|-------------------------------------------- 

E|----------------------------------- 
B|--------------------12------12---13 
G|4---4---7---7--7/12---------------- 
D|--5-------9------------------------ 
A|----------------------------------- 
E|----------------------------------- 

E|----------------------15--12-11--10-9---- 
B|13--12-10--12--13--15-------------------- 
G|--------------------------------------4-4 
D|----------------------------------------- 
A|----------------------------------------- 
E|----------------------------------------- 

E|----------------------------------- 
B|--------------------12------12---13 
G|4---4---7---7--7/12---------------- 
D|--5-------9------------------------ 
A|----------------------------------- 
E|----------------------------------- 

E|--------------------------------- 
B|13--12-10-12--13--12------------- 
G|---------------------12-----12-14 
D|--------------------------------- 
A|--------------------------------- 
E|--------------------------------- 


E|------------------------------- 
B|10--8----8---10--8------------- 
G|------10-----------7----7--7--9 
D|------------------------------- 
A|------------------------------- 
E|------------------------------- 

E|------------------------------- 
B|------------------------------- 
G|9--7--5--7--9--7----0--------12 
D|------------------5------------ 
A|------------------------------- 
E|------------------------------- 

E|------------------------------------------------ 
B|------------------------------------------------ 
G|12-0-11--0-11-0-11-0-11-0----------------------0 
D|------------------------------------------------ 
A|---------------------------10--10--10--8--8--8-- 
E|------------------------------------------------ 

E|----------------------------------- 
B|--------------------12------12---13 
G|4---4---7---7--7/12---------------- 
D|--5-------9------------------------ 
A|----------------------------------- 
E|----------------------------------- 

Eu não pude colocar o solo inteiro,mas espero que isso possa ajudar 


  
VERSE 

E|--------------------- 
B|--------------------- 
G|-------------------15 
D|---------15-15--17--- 
A|-15-17--------------- 
E|--------------------- 


E|-------------------- 
B|-------------------- 
G|-------------------- 
D|17--15-17----15---17 
A|----------17-------- 
E|-------------------- 

E|----------------------------------------------- 
B|----------------------------------------------- 
G|----------------------------------------------- 
D|----------------------------------------------- 
A|15--13-15-17-13---3--5--0-3--5--3--5--3--5--3-0 
E|----------------------------------------------- 

Outro: 
E|--------------     E|-------------- 
B|--------------     B|-------------- 
G|12-10-10-10/12 ou  G|-------------- 
D|-----------/--     D|12-10-10-10/12 
A|10-8--8--8-/10     A|10-8--8--8-/10 
E|--------------     E|-------------- 

Outro Solo(pode estar errado :/): 
E|------18--15----------18--15---------18--15----------------------- 
B|---15--------------15-------------15------------------------------ 
G|17-----------15-17----------15-17-----------15-17----------------- 
D|---------------------------------------------------12--10-10-10/12 
A|---------------------------------------------------10--8--8--8-/10 
E|------------------------------------------------------------------ 
  
	  

Full key step upFull key step up
Half key step upHalf key step up
Half key step downHalf key step down
Full key step downFull key step down
Search Paypal
auto scroll beats size up size down change color hide chords drawings
tab show chords e-chords YouTube Clip e-chords hide all tabs e-chords go to top tab