Scorpions

home > Scorpions

Someday Is Now Tab

Scorpions

Difficulty: nolevelnolevel

by Evans+Hossel

tuner correct add songbook print version text version save to e-mail
chordsukulelecavacokeyboardtabbassdrumsharmonicsflute Guitar Pro
chords

Someday Is Now

Year: 2004 - Album: Unbreakable

  		Intro : 
 
E------------------|---------------------------I 
B------------------|---------------------------I 
G-------------2----|------------2--------------I 
D-2-222-2222--2--5-|-2-222-2222-2--5----3------I 
A-3-333-3333--0--5-|-3-333-3333-0--5----3------I 
E----------------3-|---------------3----1------I 
	X3 
 
Riff 1 : 
I can feel I'm getting stronger...  
 
E----------------|-------------------------------I 
B--3-------------|--3----------------------------I 
G--2---2---4-----|--2--2-------------------------I 
D--0---2---4--5--|--0--2---4-2-4--2-4-2-4--2-4---I  X2 
A------0---2--5--|-----0---2-0-2--0-2-0-2--0-2---I 
E-------------3--|-------------------------------I 
 
*Repetir a Intro 
 
*Repetir Riff 1 e etc... 
 
Riff 2 
No turning back, no more yesterdays... 
 
E--------------|       E----------------------I 
B--------------|       B----------------------I 
G--------------|       G--555555555555555-----I 
D--3--5--------| X3    D--555555555555555-----I 
A--3--5--------|       A--333333333333333-----I 
E--1--3--------|       E----------------------I 
 
*Continua com o solo pendente 

	  

Search Paypal
auto scroll beats size up size down change color hide chords drawings
tab show chords e-chords YouTube Clip e-chords hide all tabs e-chords go to top tab