Scorpions

home > Scorpions

Skywriter Tab

Scorpions

Difficulty: nolevelnolevel

by Andre020182

tuner correct add songbook print version text version save to e-mail
chordsukulelecavacokeyboardtabbassdrumsharmonicsflute Guitar Pro
chords

Skywriter

Year: 1999 - Album: Eye II Eye

  		Intro 
Elec. w/clean tone gtr 1 
------------------------------------------------------ 
------------------------------------------------------ 
--------0----0-0-0------0----0-0-0------0-0-0---0-0-0- 
-------0----0----------0----0----------0-------0------ 
------0----0----------0----0----------0-------0------- 
---1/3----1--------1/3----1--------1/3-------1-------- 
 
 
Elec w/echo or some effect gtr 2  f1 
-----6----------------------------------------6---7----6------------------------ 
---9----------------------------------------9-------------9-/-5----------------- 
-8----------------------------------------8------------------------------------- 
-------------------------------------------------------------------------------- 
-------------------------------------------------------------------------------- 
-------------------------------------------------------------------------------- 
 
 
VERSE and SOLO 
gtr 3 w/distor  fig 1                                                  end  
fig 1 
-------------------------------------------------------------------------------- 
-------------------------------------------------------------------------------- 
-------------------------------------------------------------------------------- 
-------------------------------------------------------------------------------- 
-------------------------------------------------------------------------------- 
--5-5-5-5--5-5-5-5--3-3-3-3--3-3-3-3------5-5-5-5--5-5-5-5--3-3-3-3--3-3-3-3---- 
Very heavy p.m. ............................................................ 
 
 
f2 clean tone gtr1 
------------------------------------------------- 
------0-----------0-----------0--------0--------- 
-----2--4-2------2----2-4----2--4-2---2----2-4--- 
----2-------2---2----2-2----2------2-2----2-2---- 
------------------------------------------------- 
------------------------------------------------- 
p.m.                 ....                .... 
 
f2a 
------------------------------------------------- 
------0------------0-----------0----------------- 
-----2----0-------2----2-4----2------0----0--(0)- 
----2----2-------2----2-2----2------2-----2------ 
--------2--------------------------2------2------ 
------------------------------------------------- 
p.m.                 .... 
 
f3 
Acoustic guitar gtr 4 
--^0--0--3--3--0--0--3--3----------------- 
--^1--1--0--0--1--1--0--0----------------- 
--^2--2--0--0--2--2--0--0----------------- 
--^2--2--0--0--2--2--0--0----------------- 
--^0--0--2--2--0--0--2--2----------------- 
--^------3--3--------3--3----------------- 
downstroke 1 per chord 
 
 
Chorus 
gtr 3 
------------------------------------------------------------- 
------------------------------------------------------------- 
---4------------4-------------4------------4----------------- 
---4--4--6--2---4--4--6--2----4--4--6--2---4--4--6--2---6--4- 
---2--4--6--2---2--4--6--2----2--4--6--2---2--4--6--2---6--4- 
------2--4--0------2--4--0-------2--4--0------2--4--0---4--2- 
 
 
f4  gtr2 
-----6----------------------------------------6---7----6---7------ 
---9----------------------------------------9--------------------- 
-8----------------------------------------8----------------------- 
------------------------------------------------------------------ 
------------------------------------------------------------------ 
------------------------------------------------------------------ 
 
f5  gtr2 
-----6----------------------------------------6---7----6---------- 
---9----------------------------------------9-------------9------- 
-8----------------------------------------8----------------------- 
------------------------------------------------------------------ 
------------------------------------------------------------------ 
------------------------------------------------------------------ 
 
gtr 5 w/flanger 
---------------- 
---------------- this fill goes at the end of f4 and f5 
----------/9~--- 
---------------- 
---------------- 
---------------- 
 
This is my interpretation of the mandolin in the Chorus so don't take this  
seriously 
-6--6---7--7---6----6--6---7--7---6--9--9---10-10--9----9--9---10-10--9--11-11--12-12--11 
-7--7---7--7---7----7--7---7--7---7--10-10--10-10--10---10-10--10-10--10-12-12--12-12--12 
-6--6---6--6---6----6--6---6--6---6--9--9---9--9---9----9--9---9--9---9--11-11--11-11--11 
----------------------------------------------------------------------------------------- 
----------------------------------------------------------------------------------------- 
----------------------------------------------------------------------------------------- 
 
--9--9---10-10--9----9--9---10-10--9-----9--9---10-10--9- 
--10-10--10-10--10---10-10--10-10--10---10-10---10-10--10 
--9--9---10-10--9----9--9---10-10--9-----9--9---10-10--9- 
--------------------------------------------------------- 
--------------------------------------------------------- 
--------------------------------------------------------- 
 
 
-6--6---7--7---6----6--6---7--7---6--9--9---10-10--9---9--9---10-10--9--11-11--12-12--11 
-7--7---7--7---7----7--7---7--7---7--10-10--10-10--10--10-10--10-10--10-12-12--12-12--12 
-6--6---6--6---6----6--6---6--6---6--9--9---9--9---9---9--9---9--9---9--11-11--11-11--11 
---------------------------------------------------------------------------------------- 
---------------------------------------------------------------------------------------- 
---------------------------------------------------------------------------------------- 
 
 
--9--9---10-10--9----9--9---10-10--9-----9--9---10-10--9----9--9---10-10--9-- 
--10-10--10-10--10---10-10--10-10--10---10-10---10-10--10--10-10---10-10--10- 
--9--9---10-10--9----9--9---10-10--9-----9--9---10-10--9----9--9---10-10--9-- 
----------------------------------------------------------------------------- 
----------------------------------------------------------------------------- 
----------------------------------------------------------------------------- 
 
fills  before solo and at 4:10 and 4:19 gtr 5 
-------------------------------------- 
-/11~---11-12-11-12--9----/11~-------- 
-------------------------------------- 
-------------------------------------- 
-------------------------------------- 
-------------------------------------- 
 
after solo at 3:16 
-----13-12----------------------- 
--14----------------------------- 
--------------------------------- 
--------------------------------- 
--------------------------------- 
--------------------------------- 
 
 
Fade out f6 gtr 3 
---3--33--2---3--33--2----------- 
---3--33--3---3--33--3----------- 
---2--22--2---2--22--2----------- 
---0--00--0---0--00--0----------- 
--------------------------------- 
--------------------------------- 
 
-7--7-7--7---6--6-6--6--7--7-7--7---6--6-6--6 
-7--7-7--7---7--7-7--7--7--7-7--7---7--7-7--7 
-6--6-6--6---6--6-6--6--6--6-6--6---6--6-6--6 
--------------------------------------------- 
--------------------------------------------- 
--------------------------------------------- 
 
 
INTRO 
 
fig 1 w/f1 
 
fig 1 w/verse 
 
fig 1 w/f2 and f3 
 
fig 1 w/f4 
 
fig 1 w/f2 and f3 
 
Chorus 
 
fig 1 w/f5 
 
fig 1 w/f2 and f3 
 
Chorus 
 
SOLO w/fig 1 x2 
 
fig 1 w/f2 and f3 
 
Chorus out 
 
f6 
 

	  

Search Paypal
auto scroll beats size up size down change color hide chords drawings
tab show chords e-chords YouTube Clip e-chords hide all tabs e-chords go to top tab