Scorpions

home > Scorpions

Oh Girl Tab

Scorpions

Difficulty: nolevelnolevel

by Andre020182

tuner correct add songbook print version text version save to e-mail
chordsukulelecavacokeyboardtabbassdrumsharmonicsflute Guitar Pro
chords

Oh Girl

Year: 1996 - Album: Pure Instinct

  		Oh Girl - Schenker/Meine 
Pure instinct 
Scorpions 
 
Standard tuning 
gtr1 distor 
---------------------------------------------------------------------------- 
---------------------------------------------------------------------------- 
----------------------5-5-5---------------------------------5-5-5----------- 
----7-7-7-----5---3---5-5-5--5---3--------7-7-7-----5---3---5-5-5--5-3-5---- 
----7-7-7-----5---3---3-3-3--5---3--------7-7-7-----5---3---3-3-3--5-3-5---- 
----5-5-5-0-0-3-0-1-0------0-3-0-1-0------5-5-5-0-0-3-0-1-0------0-3-1-3---- 
 
 
---------------------------------------------------------------------------- 
---------------------------------------------------------------------------- 
----------------------5-5-5---------------------------------5-5-5----------- 
----7-7-7-----5---3---5-5-5--5---3--------7-7-7-----5---3---5-5-5--5-------- 
----7-7-7-----5---3---3-3-3--5---3--------7-7-7-----5---3---3-3-3--5-------- 
----5-5-5-0-0-3-0-1-0------0-3-0-1-0------5-5-5-0-0-3-0-1-0------0-3-------- 
 
guitar3 sinth during verse 
------------------------------------------------------------------- 
------------------------------------------------------------------- 
--------------------5-5-5-5------------------------5-5-5-5---5-6-7- 
----7-7-7-7-7-7-7-7-5-5-5-5-5-5-5-5-7-7-7-7-7-7-7-75-5-5-5-5-5-6-7- 
----7-7-7-7-7-7-7-7---------5-5-5-5-7-7-7-7-7-7-7-7--------5------- 
------------------------------------------------------------------- 
 
------------------------------------------------------------------- 
---------------------------------------------------5--------------- 
--------------------5-5-5-5------------------------5--------------- 
----7-7-7-7-7-7-7-7-5-5-5-5-5-5-5-5-7-7-7-7-7-7-7-7---7------------- 
----7-7-7-7-7-7-7-7---------5-5-5-5-7-7-7-7-7-7-7-7---7------------- 
------------------------------------------------------5------------- 
 
f1 at the ned of first verse  f2 at the end of second verse 
-------------------          -----------10-12p10--- 
-------------------          --------/12--------12- 
---5-5---5-5-5-----          ---5-5---------------- 
--5---5-5-----5----          --5---5--------------- 
-------------------          ---------------------- 
-------------------          ---------------------- 
 
gtr1  Chorus 
----------------------------------------------------------------------- 
----------------------------------------------------------------------- 
---5--------------------------------5---------------------------------- 
---5--5-----3--5-----7--7-----5--3--5--5-----3--5-----7--7-----5--3---- 
---3--5-----3--5-----7--7-----5--3--3--5-----3--5-----7--7-----5--3---- 
------3-----1--3-----5--5-----3--1-----3-----1--3-----5--5-----3--1---- 
gtr2 
----------------------------------------------------------------------- 
----------------------------------------------------------------------- 
---5--------------------------------5---------------------------------- 
---5--5-xxx-3--5-xxx-7--7-xxx-5--3--5--5-xxx-3--5-xxx-7--7-xxx-5--3---- 
---3--5-xxx-3--5-xxx-7--7-xxx-5--3--3--5-xxx-3--5-xxx-7--7-xxx-5--3---- 
------3-xxx-1--3-xxx-5--5-xxx-3--1-----3-xxx-1--3-xxx-5--5-xxx-3--1---- 
 
 
 
second verse 
------------------------------------------------------------------- 
------------------------------------------------------------------- 
--------------------5-5-5-5-------------------------5-5-5--5-5-7-7/ 
----7-7-7-7-7-7-7-7-5-5-5-5-5-5-5-5-7-7-7-7-7-7-7-7-5-5-5--5-5-7-7/ 
----7-7-7-7-7-7-7-7---------5-5-5-5-7-7-7-7-7-7-7-7--------3-3-5-5/ 
------------------------------------------------------------------- 
 
gtr2 
------------------------------------------------------------------- 
------------------------------------------------------------------- 
-----------------------------------------------------------7-7-9-9/ 
-----------------------------------------------------------7-7-9-9/ 
--------------------3-3-3-3-------------------------3-3-3--5-5-7-7/ 
----5-5-5-5-5-5-5-5---------3-3-3-3-5-5-5-5-5-5-5-5---------------- 
p.m. ..................................................... 
 
 
gtr3 
------------------------------------------------------------------- 
---------------------------------------------------5--------------- 
--------------------5-5-5-5------------------------5--------------- 
----7-7-7-7-7-7-7-7-5-5-5-5-5-5-5-5-7-7-7-7-7-7-7-7---7------------- 
----7-7-7-7-7-7-7-7---------5-5-5-5-7-7-7-7-7-7-7-7---7------------- 
------------------------------------------------------5------------- 
gtr2 
------------------------------------------------------------------- 
------------------------------------------------------------------- 
------------------------------------------------------------------- 
----------------------------------------------------5-------------- 
--------------------3-3-3-3-------------------------3-7------------ 
----5-5-5-5-5-5-5-5---------3-3-3-3-5-5-5-5-5-5-5-5---5------------ 
p.m. ..................................................... 
 
 
--------------------------------------------------------- 
--------------------------------------------------------- 
--4-------7-------4-------------------------------------- 
--4---5---7---7---4---5---7-x-7-x-7-x-7-7-x-7-x-7-x-7--5- 
--2---5---5---7---2---5---7-x-7-x-7-x-7-7-x-7-x-7-x-7--5- 
------3-------5-------3---5-x-5-x-5-x-5-5-x-5-x-5-x-5--3- 
life's .... 
 
----------- 
----------- 
----------- 
---7--7/--- 
---7--7/--- 
---5--5/--- 
at the end of song 
 
--------------------- 
Downloaded from: 
ScannedTabs.cjb.net 
--------------------- 
 

	  

Search Paypal
auto scroll beats size up size down change color hide chords drawings
tab show chords e-chords YouTube Clip e-chords hide all tabs e-chords go to top tab