Scorpions

home > Scorpions

No one like you (intro) Tab

Scorpions

Difficulty: ExpertExpert

by lelocrau

tuner correct add songbook print version text version save to e-mail
chordsukulelecavacokeyboardtabbassdrumsharmonicsflute Guitar Pro
chords

No one like you (intro)

(Meine / Schenker)

  		No one like you 
 
Esse solo foi muito difícil de pegar mas eu consegui. 
 
  
 Parte 1 
 
e|----------------------------------------------15-------------12-15(b)-15(b)-22(b)-20(b)-20-19-17-20-17----17----------------------------| 
b|-10-10-12-13-12-10-8-10-8-9-10-12-13-12-10-15----15(b)----13-------------------------------------------20----20(b)-------19-17----19(b)-| 
g|-------------------------------------------------------12----------------------------------------------------------19(b)-------19-------| 
d|----------------------------------------------------------------------------------------------------------------------------------------| 
a|----------------------------------------------------------------------------------------------------------------------------------------| 
E|----------------------------------------------------------------------------------------------------------------------------------------| 
 
  
 Parte 2 
 
e|----------------------------------------------------15-------------12-15(b)-22(b)-20(b)-2019-20-19----17-------17-------------------------------------------------| 
b|-10-10-12-13-12-10-8-10-8---10-12-13-12-10----15(b)----15(b)----13---------------------------------20----20(b)----20-17----17-------------------------------------| 
g|--------------------------9----------------12----------------12---------------------------------------------------------19----20-17----20-19-17----17-19-17-16~/1-| 
d|------------------------------------------------------------------------------------------------------------------------------------19----------19----------------| 
a|------------------------------------------------------------------------------------------------------------------------------------------------------------------| 
E|------------------------------------------------------------------------------------------------------------------------------------------------------------------| 
 
 
Qualquer dúvida ou sugestão mande um e-mail para [email protected] 

	  

Search Paypal
auto scroll beats size up size down change color hide chords drawings
tab show chords e-chords YouTube Clip e-chords hide all tabs e-chords go to top tab