Scorpions

Make It Real (ver. 2) Tab

Scorpions

Difficulty: nolevelnolevel

by Binbags

tuner correct add songbook print version text version save to e-mail
chordsukulelecavacokeyboardtabbassdrumsharmonicsflute Guitar Pro
close

there isn't a video lesson for this song

chords

Make It Real (ver. 2)

  		 
Tunning E A D G B E 
  
 
 Intro/Main Riff 
 
 
E--------------------| 
B-6-6-666------------| 
G-7-7-777-0-5--5-5-5-| 
D-7-7-777-0-5--5-5-5-| 
A-5-5-555---3--3-3-3-| 
E--------------------| Rpt 
 
 Intro solo 
            h                                                   
E---------------------------------------------------------------| 
B---------------------8fb--8fbr8p6-8--13br13p10-----------------| 
G-/7/9/10p9-10p9\7------------------------------12br12p10-12p10-| 
D------------------10-------------------------------------------| 
A---------------------------------------------------------------| 
E---------------------------------------------------------------| 
                              h        
E----------------/10-12-13-12-13p12-10----15fb--15fbrp13-15--| 
B-13fb--13rp10-13----------------------13--------------------| 
G------------------------------------------------------------| 
D------------------------------------------------------------| 
A------------------------------------------------------------| 
E------------------------------------------------------------| 
 
E-20br-17------------------22fb---22fbr17-22fb-----(22)--------| 
B---------20br20p18-20p18--------------------------------------| 
G--------------------------------------------------------------| 
D--------------------------------------------------------------| 
A--------------------------------------------------------------| 
E--------------------------------------------------------------| 
 
 last time 
E------------------------| 
B-6-6-666----------------| 
G-7-7-777-0-5----(5)-----| 
D-7-7-777-0-5----(5)-----| 
A-5-5-555---3----(3)-----| 
E------------------------| 
 
 Verse 
 
  {-------------PM---------------} 
E----------------------------------| 
B----------------------------------| 
G----------------------------------| 
D-7-7-7-7\3-3-3-3---------5-5-5-5/-| 
A-5-5-5-5\1-1-1-1-3-3-3-3-3-3-3-3/-| 
E-----------------1-1-1-1----------| 
 
  {-------------PM---------------} 
E----------------------------------| 
B----------------------------------| 
G----------------------------------| 
D-7-7-7-7\3-3-3-3------------------| 
A-5-5-5-5\1-1-1-1-3-3-3-3/5-5-5-5--| 
E-----------------1-1-1-1/3-3-3-3--| 
 
  Guitar 1 
   {-------------PM---------------} 
E{----------------------------------| 
B{----------------------------------| 
G{----------------------------------| 
D{-7-7-7-7\3-3-3-3---------5-5-5-5/-| 
A{-5-5-5-5\1-1-1-1-3-3-3-3-3-3-3-3/-| 
E{-----------------1-1-1-1----------| 
 {Guitar 2 
E{----------------------------------| 
B{----------------------------------| 
G{---------------------------5-5/7--| 
D{-7--(7)--3--(3)------------5-5/7--| 
A{-5--(5)--1--(1)--3--(3)-----------| 
E{-----------------1--(1)-----------| 
 
 
 
  Guitar 1 
   {-------------PM---------------} 
E{----------------------------------| 
B{----------------------------------| 
G{----------------------------------| 
D{-7-7-7-7\3-3-3-3------------------| 
A{-5-5-5-5\1-1-1-1-3-3-3-3/5-5-5-5--| 
E{-----------------1-1-1-1/3-3-3-3--| 
 {Guitar 2 
E{----------------------------------| 
B{-----------------6-6-6-6-8-8-8-8--| 
G{-----------------5-5-5-5-7-7-7-7--| 
D{-7--(7)--3--(3)--3-3-3-3-5-5-5-5--| 
A{-5--(5)--1--(1)-------------------| 
E{----------------------------------| 
 
  Guitar 1 
   {-------------PM---------------} 
E{----------------------------------| 
B{----------------------------------| 
G{----------------------------------| 
D{-7-7-7-7\3-3-3-3---------5-5-5-5/-| 
A{-5-5-5-5\1-1-1-1-3-3-3-3-3-3-3-3/-| 
E{-----------------1-1-1-1----------| 
 {Guitar 2 
E{----------------------------------| 
B{----------------------------------| 
G{---------------------------5-5/7--| 
D{-7--(7)--3--(3)------------5-5/7--| 
A{-5--(5)--1--(1)--3--(3)-----------| 
E{-----------------1--(1)-----------| 
 
  Guitar 1 
   {-------------PM---------------} 
E{----------------------------------------------| 
B{----------------------------------------------| 
G{----------------------------------------------| 
D{-7-7-7-7\3-3-3-3------------------------------| 
A{-5-5-5-5\1-1-1-1-3-3-3-3/5-5-5-5-5-5-5-5-5-5\-| 
E{-----------------1-1-1-1/3-3-3-3-3-3-3-3-3-3\-| 
 {Guitar 2 
E{----------------------------------------------| 
B{-----------------6-6-6-6-8-8-8-8-8-8-8-8-8-8\-| 
G{-----------------5-5-5-5-7-7-7-7-7-7-7-7-7-7\-| 
D{-7--(7)--3--(3)--3-3-3-3-5-5-5-5-5-5-5-5-5-5\-| 
A{-5--(5)--1--(1)-------------------------------| 
E{----------------------------------------------| 
 
 Chorus is intro riff and variation on intro lead. 
 
            h                                                   
E-------------------------------------------| 
B-8fb--8fbr8p6-8--13br13p10-----------------| 
G---------------------------12br12p10-12p10-| 
D-------------------------------------------| 
A-------------------------------------------| 
E-------------------------------------------| 
                              h        
E----------------/10-12-13-12-13p12-10----15fb--15fbrp13-15----| 
B-13fb--13rp10-13----------------------13-------------------15-| 
G--------------------------------------------------------------| 
D--------------------------------------------------------------| 
A--------------------------------------------------------------| 
E--------------------------------------------------------------| 
 
 
E-13fb--13dr----17-20p17-22fb--22fb--r17-22fb-----(22)---------| 
B------------15------------------------------------------------| 
G--------------------------------------------------------------| 
D--------------------------------------------------------------| 
A--------------------------------------------------------------| 
E--------------------------------------------------------------| 
 
 Rpt Verse 
 
 Additional verse guitar 
  ~~~~~~~~~~~~~~~~~~~~~~~~~~~~~~~~ 
E----------------------------------| 
B----------------------------------| 
G----------------------------------| 
D----------------------------------| 
A-5--(5)--1--(1)-------------------| 
E-----------------1--(1)--3--(3)---| 
 
  ~~~~~~~~~~~~~~~~~~~~~~~~~~~~~~~~ 
E----------------------------------| 
B----------------------------------| 
G----------------------------------| 
D----------------------------------| 
A-5--(5)--1--(1)----------3--(3)---| 
E-----------------1--(1)-----------| 
 
 Rpt Chorus 
 
 Mid 8 
 
  Guitar 1 
E{--------------------------------------------------------------| 
B{--------------------------------------------------------------| 
G{--------------------------------------------------------------| 
D{-7-xx-5-xx-7-xx-5-xx-10\9--7-xx-5-xx-7-xx-5-xx-3------3-------| 
A{-5-xx-3-xx-5-xx-3-xx-8-\7--5-xx-3-xx-5-xx-3-xx-1------1-------| 
E{--------------------------------------------------------------| 
 {Guitar 2 
E{-----------------------------------------------13-13-13-13-13-| 
B{--------------------------------------------------------------| 
G{-7-xx-5\---7-xx-5\---10\9--7-xx-5\---7-xx-5-xx----------------| 
D{-7-xx-5\---7-xx-5\---10\9--7-xx-5\---7-xx-5-xx----------------| 
A{--------------------------------------------------------------| 
E{--------------------------------------------------------------| 
 
  Guitar 1 
E{--------------------------------------------------------| 
B{--------------------------------------------------------| 
G{--------------------------------------------------------| 
D{-7-xx-5-xx-7-xx-5-xx-10\9--7-xx-5-xx-7-xx-5-xx-3---(3)--| 
A{-5-xx-3-xx-5-xx-3-xx-8-\7--5-xx-3-xx-5-xx-3-xx-1---(1)--| 
E{--------------------------------------------------------| 
 {Guitar 2 
E{--------------------------------------------------------| 
B{------6\--------6\---10-10------6\--------6\------------| 
G{-7-xx-5\---7-xx-5\---12b12b7-xx-5\---7-xx-5\---3--------| 
D{-7-xx-5\---7-xx-5\---------7-xx-5\---7-xx-5\---3--------| 
A{--------------------------------------------------------| 
E{--------------------------------------------------------| 
 
 Rpt above riffs for guitar solo backing. 
 
 After solo 
 
  Clean guitar 
 
E{---------------------------------| 
B{-----3---------------------------| 
G{---2---3-----3---------------5---| 
D{-0---------3---3-----3-----5---5-| 
A{---------1---------3---3-3-------| 
E{-----------------1---------------| 
 {Guitar 2 slight overdrive 
 { h 
E{---------------------------------| 
B{-11p10-Trill---------------------| 
G{---------------------------------| 
D{---------------------------------| 
A{---------------------------------| 
E{---------------------------------| 
 
 
  Guitar 1 
E{---------------------------------| 
B{-----3---------------------------| 
G{---2---3-----3-------------------| 
D{-0---------3---3-----3-------5---| 
A{---------1---------3---3---5---5-| 
E{-----------------1-------3-------| 
 {Guitar 2 slight overdrive 
 { h     h 
E{---------------------------------| 
B{-13p10-11p10-Trill---------------| 
G{---------------------------------| 
D{---------------------------------| 
A{---------------------------------| 
E{---------------------------------| 
 {Guitar 3 
E{-----------1--(1)------------3---| 
B{-----3---------------------3---3-| 
G{---2---2-------------3-----------| 
D{-0-----------------3---3---------| 
A{---------1-------1---------------| 
E{-------------------------3-------| 
 
  Guitar 1 with distortion 
  Play chords as volume swells 
E{----------------------------------| 
B{----------------------------------| 
G{----------------------------------| 
D{-7--(7)--3--(3)----------5--(5)---| 
A{-5--(5)--1--(1)--3--(3)--3--(3)---| 
E{-----------------1--(1)-----------| 
 {Guitar 2 slight overdrive 
 { h 
E{----------------------------------| 
B{-11p10-Trill----------------------| 
G{----------------------------------| 
D{----------------------------------| 
A{----------------------------------| 
E{----------------------------------| 
 {Guitar 3   
 {~~~~~~~~~~~~~~~~~~~~~~~~~~~~~~~~ 
E{----------------------------------| 
B{----------------------------------| 
G{-7-----------(7)------------------| 
D{----------------------------------| 
A{----------------------------------| 
E{----------------------------------| 
 
  Guitar 1 with distortion 
  Play chords as volume swells 
E{----------------------------------| 
B{-----------------6--(6)--8--(8)-\-| 
G{-----------------5--(5)--7--(7)-\-| 
D{-7--(7)--3--(3)--3--(3)--5--(5)-\-| 
A{-5--(5)--1--(1)-------------------| 
E{----------------------------------| 
 {Guitar 2 slight overdrive 
 { h 
E{----------------------------------| 
B{-11p10-Trill----------------------| 
G{----------------------------------| 
D{----------------------------------| 
A{----------------------------------| 
E{----------------------------------| 
 {Guitar 3 
 { ~~~~~~~~~~~~~~~~~~~~~~~~~~~~~~~~ 
E{----------------------------------| 
B{----------------------------------| 
G{-------------(7)------------------| 
D{----------------------------------| 
A{----------------------------------| 
E{----------------------------------| 
 
 Rpt 2nd half of verse 
 Rpt Chorus 2 X 
 
  Guitar 1 
E{--------------------------------------------| 
B{--------------------------------------------| 
G{-5--5--x--5--5--x--5--5--x--5--5--x--7\-----| 
D{-5--5--x--5--5--x--5--5--x--5--5--x--7\-----| 
A{-3--3--x--3--3--x--3--3--x--3--3--x--5\-----| 
E{--------------------------------------------| 
 {Guitar 2 
E{-15fb15fb-15fb15fb-15fb15fb-15fbr15p13------| 
B{---------------------------------------15\--| 
G{--------------------------------------------| 
D{--------------------------------------------| 
A{--------------------------------------------| 
E{--------------------------------------------| 
 
 
 
 
END 
 
 

	  

Full key step upFull key step up
Half key step upHalf key step up
Half key step downHalf key step down
Full key step downFull key step down
auto scroll beats size up size down change color hide chords drawings
tab show chords e-chords YouTube Clip e-chords hide all tabs e-chords go to top tab

share with facebook

Search Paypal