Scorpions

home > Scorpions

Lonely Nigths Tab

Scorpions

Difficulty: ExpertExpert

by %5FCassiano%5F

tuner correct add songbook print version text version save to e-mail
chordsukulelecavacokeyboardtabbassdrumsharmonicsflute Guitar Pro
chords

Lonely Nigths

  		  Am            F         G      Em       Am         F        G 
|--------------------------------------|---------------------------------------| 
|-------0---------0-------0------0-----|----0---------0--------0--------0-----0| 
|---------5---------5------0-------0---|------5---------5--------0-------------| 
|-----------7--------7------7--------7-|--------7---------7--------7-----------| 
|--0----------8-------5------7---------|-0--------8---------5--------3------2--| 
|--------------------------------------|---------------------------------------| 
 
 Am            F         G      Em         Am        F 
|--------------------------------------|--------------------|---------------| 
|-------0---------0-------0------0-----|----0---------0-----|----0----------| 
|---------5---------5------0-------0---|------5---------5---|----0----------| 
|-----------7--------7------7--------7-|--------7---------7-|----7----------| 
|--0----------8-------5------7---------|-0--------8---------|----5----------| 
|--------------------------------------|--------------------|---------------| 
 
Verso1:(repete a intro iniciando no final da primeira linha...) 
Am    F     G 
Since you're gone 
Em           Am    F 
 There is an empty space 
G          Am F  G 
 Since you're gone 
Em         Am   F    G 
 The world is not the same 
                      
    Am                Dm               G                 C          Em 
|------0-----0-----0----1-----1------|----3-----3-----------0---------0-----| 
|-------1-----1----------3-----3-----|------0-----0-----------1---------0---| 
|--------2-----2----------2-----2--0-|--------0------0----------0---------0-| 
|---------------------0--------------|-----------------0--------------------| 
|--0---------------------------------|-------------------3------------------| 
|------------------------------------|--3--------------------------0--------| 
 
    Am                Dm               G                     E 
|------0-----0-----0----1-----1------|----3-----3--------|---0-----------| 
|-------1-----1----------3-----3-----|------0-----0------|---0-----------| 
|--------2-----2----------2-----2--0-|--------0------0---|---1-----------| 
|---------------------0--------------|-----------------0-|---2-----------| 
|--0---------------------------------|-------------------|---2-----------| 
|------------------------------------|--3----------------|---0-----------| 
 
 
(dedilha o q ta acima, emendando com o dedilhado da intro tocada no primero verso) 
 Am       Dm 
 
 I go back to the places we've been 
   G             C 
 It feels like you're still there 
 Am               Dm 
 I live all those moments again 
 G                    E 
 Wishing you were here 
                     
 Am    F     G 
 Since you're gone 
 Em           Am    F 
 There is an lonely heart 
 G          Am F  G 
 Since you're gone 
 Em         Am   F    G 
 Nothin' is like it was 
 Am       Dm 
 There are memories all over the place 
 G             C 
 Bringin' it back all so clear 
 Am               Dm 
 Remember all of those days 
 G                    E 
 Wishing you were here..... 
 
 
           Am            F              Am           F 
All those lonely nights,lonely nights,lonely nights,lonely nights 
 Am                 F           C 
 lonely nights,..I gotta fight for you 
 C 
 Yes I do....(Repeat intro) 
                  
 
 
 Since you're gone 
 There is a heart that bleeds 
 Since you're gone 
 I'm not the man I used to be 
 
 I follow you steps in the snow 
 The traces disappear 
 We know what we've lost when it's gone 
 I'm wishing you were here 
 
              (solo) 
---------------------------------------------------------- 
---20Fb----{20Fb(TOT)~~(20)}---20Fb---20---{17(TOT)18-17}- 
---------------------------------------------------------- 
---------------------------------------------------------- 
---------------------------------------------------------- 
---------------------------------------------------------- 
 
   -----------17--19--20--19--20-22-22Fb-(22)-22Fb-(22)\- 
   --(17)\--17------------------------------------------- 
   ------------------------------------------------------ 
   ------------------------------------------------------ 
   ------------------------------------------------------ 
   ------------------------------------------------------ 
 
 
 
------------------------------------------------------- 
--------------------------------------17--------------- 
------14--16Hb--(16)--14--16Hb&Fb--------16Fb--(16)\--- 
---14-------------------------------------------------- 
------------------------------------------------------- 
------------------------------------------------------- 
 
   --{20Fb(TOT)20}--20-17--X--------20----------- 
   ---------------------20--20Fb------20Fb--(20)- 
   ---------------------------------------------- 
   ---------------------------------------------- 
   ---------------------------------------------- 
   ---------------------------------------------- 

	  

Full key step upFull key step up
Half key step upHalf key step up
Half key step downHalf key step down
Full key step downFull key step down
Search Paypal
auto scroll beats size up size down change color hide chords drawings
tab show chords e-chords YouTube Clip e-chords hide all tabs e-chords go to top tab