Scorpions

home > Scorpions

Loging For Fire Tab

Scorpions

Difficulty: nolevelnolevel

by gustsilva

tuner correct add songbook print version text version save to e-mail
chordsukulelecavacokeyboardtabbassdrumsharmonicsflute Guitar Pro
chords

Loging For Fire

  		 
                                                    C5              D5 
E|--|----------------------------------------|-------------------------- 
B|--|----------------------------------------|-------------------------- 
G|--|--------------11--12--11h12p11----------|--(19)--14h16~~~--12------ 
D|--|--12--12--14--------------------14--12--|-------------------------- 
A|--|----------------------------------------|-------------------------- 
E|--|----------------------------------------|-------------------------- 
 

 
                               C5               D5 
E|-------------------------|-------------------------------------------- 
B|-------------------------|-------------------------------------------- 
G|--^--(12)--11--12--9h11--|--11^--11^--11~~~--9--9--11--9h11p9--------- 
D|-------------------------|-------------------------------------12----- 
A|-------------------------|-------------------------------------------- 
E|-------------------------|-------------------------------------------- 
 

 
                C5                                    D5 
E|-----------|---------------------------------------------------------- 
B|-----------|---------------------------------------15^--(15)p12------- 
G|--9--------|-----12--14--14^--(14)--12--14~~~--12--------------------- 
D|-----------|/14------------------------------------------------------- 
A|-----9~~~--|---------------------------------------------------------- 
E|-----------|---------------------------------------------------------- 
 

 
                        E5 
E|------------------|-------12--12-------12--12--14--12------12--------- 
B|--15--------------|--15^----------15^------------------15------15----- 
G|------14^--14p12--|--------------------------------------------------- 
D|------------------|--------------------------------------------------- 
A|------------------|--------------------------------------------------- 
E|------------------|--------------------------------------------------- 
 

 
                     D5 
E|---------------|----------14--15--17--15--14-------------------------- 
B|--12-------15--|--15--17----------------------17--15--17--15---------- 
G|------14^------|----------------------------------------------16------ 
D|---------------|------------------------------------------------------ 
A|---------------|------------------------------------------------------ 
E|---------------|------------------------------------------------------ 
 

 
                   C5                   D5 
E|-------------|---------------22^~~~--19------------------------------- 
B|-------------|--15h17~~~--0--------------22--20--------19--17--19----- 
G|--14---------|-------------------------------------------------------- 
D|------17~~~--|-------------------------------------------------------- 
A|-------------|-------------------------------------------------------- 
E|-------------|-------------------------------------------------------- 
 

 
                                  C5                   D5 
E|--|-------------------------|---------------22^~~~--19---------------- 
B|--|--15--15--19p15--15--15--|--15h17~~~--0--------------22--20-------- 
G|--|-------------------------|----------------------------------------- 
D|--|-------------------------|----------------------------------------- 
A|--|-------------------------|----------------------------------------- 
E|--|-------------------------|----------------------------------------- 
 

 
                                              C5 
E|-----------------|--17--17--19p17--------------------------|--14------ 
B|-----19--17--19--|-----------------20--19--17--19------17--|---------- 
G|-----------------|---------------------------------19------|---------- 
D|-----------------|-----------------------------------------|---------- 
A|-----------------|-----------------------------------------|---------- 
E|-----------------|-----------------------------------------|---------- 
 

 
                           D5 
E|--14--15p14----------|--12------------------12------------------------ 
B|-------------17--15--|------15p12-------12------15p12----------------- 
G|---------------------|-------------14^-----------------14^--(14)------ 
D|---------------------|------------------------------------------------ 
A|---------------------|------------------------------------------------ 
E|---------------------|------------------------------------------------ 
 

 
                        E5 
E|------------------|----------------------15--12----------|------------ 
B|------------------|--12h15p12--------------------15--12--|------------ 
G|--p12------12~~~--|------------14------------------------|------------ 
D|-------14---------|--------------------------------------|------------ 
A|------------------|--------------------------------------|------------ 
E|------------------|--------------------------------------|------------ 
 

 
                             D5                  E5 
E|--15/17p15----------|------------------------------------------------- 
B|------------17------|-----12--15--14--12------12-----14--12----------- 
G|----------------16--|---------------------15-----------------15------- 
D|--------------------|------------------------------------------------- 
A|--------------------|------------------------------------------------- 
E|--------------------|------------------------------------------------- 
 

                                                          C5 
E|-----------------------------------------------------------|---------- 
B|--14--12---------------------------------------------------|---------- 
G|----------15--14p12---------14p13--------------------------|---------- 
D|---------------------14------------14--12------------------|---------- 
A|-------------------------------------------14--13--12------|---------- 
E|-------------------------------------------------------15--|---------- 
	  

Full key step upFull key step up
Half key step upHalf key step up
Half key step downHalf key step down
Full key step downFull key step down
Search Paypal
auto scroll beats size up size down change color hide chords drawings
tab show chords e-chords YouTube Clip e-chords hide all tabs e-chords go to top tab