Scorpions

home > Scorpions

Is There Anybody There Tab

Scorpions

Difficulty: nolevelnolevel

by Binbags

tuner correct add songbook print version text version save to e-mail
chordsukulelecavacokeyboardtabbassdrumsharmonicsflute Guitar Pro
chords

Is There Anybody There

Year: 1979 - Album: Lovedrive

  		Transcribed By: Steve 
Email:          [email protected] 
 
 
.  - palm mute           /  - slide up to 
\  - slide down to       ~  - vibrato 
h  - hammer on           b  - Bend 
p  - pull off            Suffixes for bend 
t  - tap                 f  - full bend    h - half bend 
ph - pinched harmonic    q  - quarter bend t - tap bend 
                         p  - pre bend 
*  - see comment         ^  - Hold bend    r release bend 
x  - Stuccatto           ~  - vibrato bend 
,  - slight palm mute    () - ghost note, sustained note 
"  - tremolo note        <> - harmonic 
 
Tuning E A D G B E 
 
 Main Riff 
 
 Guitar 1 clean 
{------------------------------------------| 
{-----12-12-----12-12-----12-12-----12-12--| 
{-----11-11-----11-11-----11-11-----11-11--| 
{-x-x-9--9--x-x-9--9--x-x-9--9--x-x-9--9---| 
{------------------------------------------| 
{------------------------------------------| 
{Guitar 2 
{{PM} 
{-----7--7---------------------------------| 
{-----7--7---------------------------------| 
{---------------7---------(7)------/9---\--| 
{-----------x---7---------(7)------/9---\--| 
{-------------x-5---------(5)--------------| 
{-7-7--------------------------------------| Rpt 3 X 
 
 Guitar 1 clean 
{------------------------------------------| 
{-----12-12-----12-12-----12-12-----12-12--| 
{-----11-11-----11-11-----11-11-----11-11--| 
{-x-x-9--9--x-x-9--9--x-x-9--9--x-x-9--9---| 
{------------------------------------------| 
{------------------------------------------| 
{ Guitar 2 
{{PM} 
{-----7--7---------------------------------| 
{-----7--7---------------------------------| 
{---------------7---------(7)--------------| 
{-----------x---7---------(7)--------------| 
{-------------x-5---------(5)--------9\7---| 
{-7-7--------------------------------7\5---| 
{ Guitar 3 
{{PM} 
{-----7--7---------------------------------| 
{-----7--7---------------------------------| 
{---------------7---------(7)--------------| 
{-----------x---7---------(7)--------------| 
{-------------x-5---------(5)--------------| 
{-7-7--------------------------------------| 
 
|--------------------------------------------------| 
|--------------------------------------------------| 
|-7----(7)----5----(5)----2----(1)----9----(9)---\-| 
|-7----(7)----5----(5)----1----(1)----9----(9)---\-| 
|-5----(5)----3----(3)----2----(2)----7----(7)---\-| 
|--------------------------------------------------| 
 
 
|-------------------------| 
|-------------------------| 
|-7----(7)----5----(5)----| 
|-7----(7)----5----(5)----| 
|-5----(5)----3----(3)----| 
|-------------------------| 
 
 
 Guitar 1 clean 
{------------------------------------------| 
{-----12-12-----12-12-----12-12-----12-12--| 
{-----11-11-----11-11-----11-11-----11-11--| 
{-x-x-9--9--x-x-9--9--x-x-9--9--x-x-9--9---| 
{------------------------------------------| 
{------------------------------------------| 
{Guitar 2 
{{PM} 
{-----7--7---------------------------------| 
{-----7--7---------------------------------| 
{---------------7---------(7)--------------| 
{-----------x---7---------(7)--------------| 
{-------------x-5---------(5)-------9\7----| 
{-7-7-------------------------------7\5----| 
{Guitar 3 
{------------------------------------------| 
{------------------------------------------| 
{------------------------------------------| 
{------------------------------------------| 
{-9---------------(9)----------------------| 
{-7---------------(7)----------------------| 
 
 Bridge 
 
|--------------------------------------------------| 
|--------------------------------------------------| 
|-7----(7)----5----(5)----2----(2)----9----(9)---\-| 
|-7----(7)----5----(5)----1----(1)----9----(9)---\-| 
|-5----(5)----3----(3)----2----(2)----7----(7)---\-| 
|--------------------------------------------------| 
 
 
|-------------------------| 
|-------------------------| 
|-7----(7)----5----(5)----| 
|-7----(7)----5----(5)----| 
|-5----(5)----3----(3)----| 
|-------------------------| 
 
 Guitar 1 clean 
{------------------------------------------| 
{-----12-12-----12-12-----12-12-----12-12--| 
{-----11-11-----11-11-----11-11-----11-11--| 
{-x-x-9--9--x-x-9--9--x-x-9--9--x-x-9--9---| 
{------------------------------------------| 
{------------------------------------------| 
{Guitar 2 
{{PM} 
{-----7--7---------------------------------| 
{-----7--7---------------------------------| 
{---------------7---------(7)------/9---\--| 
{-----------x---7---------(7)------/9---\--| 
{-------------x-5---------(5)--------------| 
{-7-7--------------------------------------| Rpt 3 X 
 
 Guitar 1 clean 
{------------------------------------------| 
{-----12-12-----12-12-----12-12-----12-12--| 
{-----11-11-----11-11-----11-11-----11-11--| 
{-x-x-9--9--x-x-9--9--x-x-9--9--x-x-9--9---| 
{------------------------------------------| 
{------------------------------------------| 
{ Guitar 2 
{{PM} 
{-----7--7---------------------------------| 
{-----7--7---------------------------------| 
{---------------7---------(7)--------------| 
{-----------x---7---------(7)--------------| 
{-------------x-5---------(5)--------9\7---| 
{-7-7--------------------------------7\5---| 
 
 Verse clean guitar 
 
 Riff A 
 
|-7-7-----7---7-7-7---7-----| 
|-7-7-----7---7-7-7---7-----| 
|-----x-x---x-------x---x---| 
|-----x-x---x-------x---x---| 
|---------------------------| 
|---------------------------| Rpt 2 X 
 
 Riff B 
 
|-5-5-5-----5---5-5-5---5-5----| 
|-5-5-5-----5---5-5-5---5-5----| 
|-------x-x---x-------x-----x--| 
|-------x-x---x-------x-----x--| 
|------------------------------| 
|------------------------------|  
 
 Rpt Riff A 2 X 
 Rpt Riff B 
 Rpt Riff A 
 
 Chorus 
 
 Guitar 1 
{-----------------------------------------------------| 
{-8---------------------------------------------------| 
{-7-------2--------7---------9---------\--------------| 
{-5-------2--------7---------9---------\5-------------| 
{---------0--------5---------7---------\5-------------| 
{---------------------------------------3-------------| 
{Guitar 2 
{---7-----/-9------/14-------/16---------7------7-----| 
{-----8---/---10---/---15----/---17--------8-0----8-0-| 
{-------7-/------9-/------14-/------16----------------| 
{-----------------------------------------------------| 
{-----------------------------------------------------| 
{-----------------------------------------------------| 
 
 Guitar 1 
{---------------| 
{---------------| 
{-------9-7-----| 
{---9---9-7-----| 
{---9-----------| 
{-7-------------| 
{Guitar 2 
{---7----7------| 
{-----7----7----| 
{---------------| 
{---------------| 
{---------------| 
{---------------| 
{Guitar 3 
{---------------| 
{---------------| 
{---------------| 
{---------------| 
{-9-----(9)-----| 
{-7-----(7)-----| 
 
 Guitar 1 
{-----------------------------------------------------| 
{-8---------------------------------------------------| 
{-7-------2--------7---------9---------\--------------| 
{-5-------2--------7---------9---------\5-------------| 
{---------0--------5---------7---------\5-------------| 
{---------------------------------------3-------------| 
{Guitar 2 
{---7-----/-9------/14-------/16----------------------| 
{-----8---/---10---/---15----/---17-------------------| 
{-------7-/------9-/------14-/------16----------------| 
{-----------------------------------------------------| 
{-----------------------------------------------------| 
{-----------------------------------------------------| 
 
 Rpt Main Riff 
 Rpt Verse 
 Rpt Chorus 
 
 Rpt Main 10 X for guitar solo backing 
 
 Guitar solo 
                                          ~~~~~~~~~~~ 
|-19-\--/19-\-----------------------8-------------------7------------| 
|-----------------10b-r-b-----10b-r---8-10-b---------7----10p7-------| 
|-------------------------<7>----------------------------------9b--r-| 
|--------------------------------------------------------------------| 
|--------------------------------------------------------------------| 
|--------------------------------------------------------------------| 
 
      ~~~~~~                    ~~~~ 
|-------------------------------------------------------------14-| 
|----------------------12-12121212--15b---------------19---------| 
|-7-9--------7---------------------------------7/14/16---13/14---| 
|-----9------7---------------------------------------------------| 
|------------------x\--------------------------------------------| 
|------------------x-\-------------------------------------------| 
 
                          ~~~~~~~                   ~~~~~~~~~~~~ 
|-------12------9-------------------------------------------------| 
|-----------------12-----10b-----r-12-12-10-12-14b-12-----------\-| 
|-11-13----9-11------7/9------------------------------------------| 
|-----------------------------------------------------------------| 
|-----------------------------------------------------------------| 
|-----------------------------------------------------------------| 
 
 
|--------------------------------14-17p15--| 
|-15-17-b---19-b--------14-15-17-----------| 
|------------------12/14-------------------| 
|------------------------------------------| 
|------------------------------------------| 
|------------------------------------------| 
 
 Guitar 1 
   ~~~~~~~~~~~               ~~~~~~~~~~~ 
{-17fb--------17fbr17p14-17-17fb-----------| 
{------------------------------------------| 
{------------------------------------------| 
{------------------------------------------| 
{------------------------------------------| 
{------------------------------------------| 
{Guitar 2 
{   ~~~~~~~~~~               ~~~~~~~~~~~ 
{-20fb--------20fbr20p17-20-20fb-----------| 
{------------------------------------------| 
{------------------------------------------| 
{------------------------------------------| 
{------------------------------------------| 
{------------------------------------------| 
 
 
 Rpt Chorus 
 Rpt Main Riff 
 Rpt Bridge to fade 
 
 
 
END 
 
 

	  

Full key step upFull key step up
Half key step upHalf key step up
Half key step downHalf key step down
Full key step downFull key step down
Search Paypal
auto scroll beats size up size down change color hide chords drawings
tab show chords e-chords YouTube Clip e-chords hide all tabs e-chords go to top tab