Scorpions

home > Scorpions

Hold Me Tight Tab

Scorpions

Difficulty: nolevelnolevel

by Andre020182

tuner correct add songbook print version text version save to e-mail
chordsukulelecavacokeyboardtabbassdrumsharmonicsflute Guitar Pro
chords

Hold Me Tight

Year: 1980 - Album: Animal Magnetism

(Rudolf Schenker/ Lyrics:Klaus Meine/Herman Rarebell)

  		Default Tuning 
 
 
Intro: 
 
        Am		      F Am F  Am   Am 
Gtr1|----------------------------------------------| 
    |-------------------------6-5-6---5------------| 
    |--5---5------------------5-5-5---5----5---5---| 
    |--7---7-------------------------------7---7---| 
    |--7---7-------------------------------7---7---| 
    |--5---5-------------------------------5---5---| 
    |   					   | 
    |					           | 
    |						   | 
    |						   | 
Gtr2|----------------------------------------------| 
    |----------------------------------------------| 
    |----------2a.h----2a.h------------------------| 
    |----------2-------2---------------------------| 
    |--------0-------0-----------------------------| 
    |----------------------------------------------| 
 
 
 
 
         
       Am                     F Am F  Am   Am 
Gtr1|----------------------------------------------| 
    |-------------------------6-5-6---5------------| 
    |--5---5------------------5-5-5---5----5---5---| 
    |--7---7-------------------------------7---7---| 
    |--7---7-------------------------------7---7---| 
    |--5---5-------------------------------5---5---| 
    |   					   | 
    |					           | 
    |						   | 
    |						   | 
Gtr2|----------------------------------------------| 
    |-10---8-----------------10-8-10---8---6-------| 
    |--9---7------------------9-7--9---7---5-------| 
    |----------------------------------------------| 
    |----------------------------------------------| 
    |----------------------------------------------| 
 
 
 
 
 
Verse: 
 
        Am                    F Am F  Am 
Gtr1|----------------------------------------------| 
    |-------------------------6-5-6---5------------| 
    |--5---5------------------5-5-5---5----5---5---| 
    |--7---7-------------------------------7---7---| 
    |--7---7-------------------------------7---7---| 
    |--5---5-------------------------------5---5---| 
   
She's the one... 
 
 
 
 
Chorus: 
 
Play Powerful Chords (Overdrive) 
 
A5   D5        F5         A5 
Alright don't want me to stay 
A5   D5    F5       A5 
Alright have it your way 
A5   D5    F5       A5 
Alright I'm leaving tonight 
A5   D5  F5                         A5 
Alright woman, I'll get out of your sight  
 
 
 
 
Solo: 
 
|--19v----15-----------------------------------12-15p12-----------| 
|-------------17-15b(1/2)-------------------------------15-15b----| 
|-----------------------------------------------------------------| 
|--------------------------(3-2-3-2-3)a.h-------------------------| 
|-----------------------------------------------------------------| 
|----------------------------------------3--5---------------------| 
 
 
 
|--15b+a.h-(4 times)--------------| 
|---------------------------------| 
|----------------------7b--5b-----| 
|---------------------------------| 
|---------------------------------| 
|---------------------------------| 
 
 
 
 
Chorus: 
 
A5   D5        F5         A5 
Alright don't want me to stay 
A5   D5    F5       A5 
Alright have it your way 
A5   D5    F5       A5 
Alright I'm leaving tonight 
A5   D5  F5                         A5 
Alright woman, I'll get out of your sight  
 
 

	  

Full key step upFull key step up
Half key step upHalf key step up
Half key step downHalf key step down
Full key step downFull key step down
Search Paypal
auto scroll beats size up size down change color hide chords drawings
tab show chords e-chords YouTube Clip e-chords hide all tabs e-chords go to top tab