Scorpions

Evening Wids Tab

Scorpions

Difficulty: nolevelnolevel

by Binbags

tuner correct add songbook print version text version save to e-mail
chordsukulelecavacokeyboardtabbassdrumsharmonicsflute Guitar Pro
close

there isn't a video lesson for this song

chords

Evening Wids

  		Tunning E A D G B E 
  
 
 
 
E--------------------------------------------------| 
B-3----(3)-----------------------------------------| 
G-2----(2)----2----(2)-----------------------------| 
D-0----(0)----2----(2)----8----(8)---\3----(3)-----| 
A-------------0----(0)----8----(8)---\3----(3)-----| 
E-------------------------6----(6)---\1----(1)-----| Rpt 
 
 
 Chords implied by bass 
 
  D     C      B   A#  A   D    C     B    A#     A 
 
   ~~~~~~~~~~~~~~~~~~~~~~~~~~~~~~~~~~~~~~~~~~~~~~~~~~~~~~~~~~~~~~ 
E----------------------------------------------------------------| 
B-17b-----17br17--15b-r-15---------------------------------------| 
G--------------------------14------13br---12-10-9-10-9--9-9------| 
D----------------------------------------------------------------| 
A----------------------------------------------------------------| 
E----------------------------------------------------------------| 
 
 
 Verse  
 Bass on own plays these notes 
 
 D     C      B   A#  A                
 
  Guitar 1 
 
E{--------------------------------------| 
B{------------666---pb8r8-6-8-6-5-6-55--| 
G{-7---999------------------------------| 
D{--------------------------------------| 
A{--------------------------------------| 
E{--------------------------------------| 
 {Guitar 2 
E{--------------------------------------| 
B{-------------66-------15br15----------| 
G{-7----99---------------------14-------| 
D{--------------------------------------| 
A{--------------------------------------| 
E{--------------------------------------| 
 
  Guitar 1 
E{-------------------------------------------------------------------| 
B{----17b-17-15------------------------------------------------------| 
G{--x------------12br10-12p10----12/13-12\10----10-10----------------| 
D{-x--------------------------12-------------12----------------------| 
A{-------------------------------------------------------------------| 
E{-------------------------------------------------------------------| 
 {Guitar 2 
E{-------------------------------------------------------------------| 
B{----17b----------------------------17-----------------15-17--17b---| 
G{-------------------------------------------------------------------| 
D{-------------------------------------------------------------------| 
A{-------------------------------------------------------------------| 
E{-------------------------------------------------------------------| 
 
  Guitar 1 
E{--------------------------| 
B{--12br--------------------| 
G{-------14-12\10-12p10-----| 
D{----------------------12--| 
A{--------------------------| 
E{--------------------------| 
 {Guitar 2  
 {    h 
E{--------------------------| 
B{-15-17-----17b-----15-----| 
G{--------------------------| 
D{--------------------------| 
A{--------------------------| 
E{--------------------------| 
 
 Clean guitar 
 
  D               C               B          A#      A 
E-----5---3---5-------5---3---5----------0------------0-----0----| 
B---3---3---3---6---3---3---3---6----3-----3------------2--------| 
G----------------------------------0---0------------------2------| 
D----------------------------------------------------------------| 
A----------------------------------------------------------------| 
E----------------------------------------------------------------| Rpt 2 X 
 
  D              C              B              A#      A 
E---1---0---1------1---0---1------1---0---1--------------------| 
B---3-3---3---3----3-3---3---3----3-3---3---3-----3------2-----| 
G-----------------------------------------------3------2---2---| 
D----------------------------------------------3------2--------| 
A--------------------------------------------------------------| 
E--------------------------------------------------------------| Rpt 3 X 
 
  Volume swells 
     ~~~~~~~~~~~  ~~~~~~~~~~  ~~~~~~~~~   ~~~~~~~~~~~~  ~~~~~~~~~~~~ 
E---------------------------<15b-------<22b-------------------------| 
B-<15b---------<15b----------------------------------<15b-----------| 
G-------------------------------------------------------------------| 
D-------------------------------------------------------------------| 
A-------------------------------------------------------------------| 
E-------------------------------------------------------------------| 
 
 
  Guitar 1(with distortion) 
   ~~~~~~~~~~~~~~~~~~~~~~~ 
E{-----------------------------------| 
B{-----------------------------------| 
G{-----7------5--------4-------------| 
D{-------------------------2--5-/10--| 
A{-5------3-------2--------0--3-/8---| 
E{-----------------------------------| 
 {Guitar 2(with distortion) 
 { ~~~~~~~~~~~~~~~~~~~~~~~ 
E{-----------------------------------| 
B{-----7------8--------7-------------| 
G{-----------------------------------| 
D{-------------------------2--5-/10--| 
A{-5------3-------2--------0--3-/8---| 
E{-----------------------------------| Rpt 4 x 
 
  Guitar 1 
E{--------------------------------------------------------------| 
B{--------------------------------------------------------------| 
G{-3----(3)---/5----(5)---/10---(10)---121212121212121212121212-| 
D{-3----(3)---/5----(5)---/10---(10)---121212121212121212121212-| 
A{-1----(1)---/3----(3)---/8----(8)----101010101010101010101010-| 
E{--------------------------------------------------------------| 
 {Guitar 2 
 { ~~~~~~~~~~~~~~~~~~~~~~~~~~~~~~~~~~~~ 
E{--------------------------------------------------------------| 
B{--------------------------------------------------------------| 
G{-------3-----------5----/10----------------------121212121212\| 
D{--------------------------------------------------------------| 
A{-1-----------3------------------------------------------------| 
E{--------------------------------------------------------------| 
 
  Guitar 1 
E{--------------------------------------------------------------| 
B{--------------------------------------------------------------| 
G{-3----(3)---/5----(5)---/10----10---\9-9-9-9-9-9-9-9-9-9-9-9\-| 
D{-3----(3)---/5----(5)---/10---(10)--\9-9-9-9-9-9-9-9-9-9-9-9\-| 
A{-1----(1)---/3----(3)---/8----(8)---\7-7-7-7-7-7-7-7-7-7-7-7\-| 
E{--------------------------------------------------------------| 
 {Guitar 2 
 { ~~~~~~~~~~~~~~~~~~~~~~~~~~~~~~~~~~~~ 
E{--------------------------------------------------------------| 
B{--------------------------------------------------------------| 
G{-------3-----------5----/------10-----------------------------| 
D{--------------------------------------------------------------| 
A{-1-----------3-----------------------7-7-7-7-7-7-7-7-7-7-7-7--| 
E{--------------------------------------------------------------| 
 
  Guitar 1 
E{--------------------------------------------------------------| 
B{--------------------------------------------------------------| 
G{-3----(3)---/5----(5)---/10---(10)---121212121212121212121212-| 
D{-3----(3)---/5----(5)---/10---(10)---121212121212121212121212-| 
A{-1----(1)---/3----(3)---/8----(8)----101010101010101010101010-| 
E{--------------------------------------------------------------| 
 {Guitar 2 
 { ~~~~~~~~~~~~~~~~~~~~~~~~~~~~~~~~~~~~ 
E{--------------------------------------------------------------| 
B{--------------------------------------------------------------| 
G{-------3-----------5----------/10----121212121212121212121212\| 
D{--------------------------------------------------------------| 
A{-1-----------3------------------------------------------------| 
E{--------------------------------------------------------------| 
 
  Guitar 1 
E{--------------------------------------------------------------------| 
B{--------------------------------------------------------------------| 
G{-3----(3)---/5----(5)---/10-------10------\9-9-9-9-9-9-9-9-9-9-9-9\-| 
D{-3----(3)---/5----(5)---/10------(10)-----\9-9-9-9-9-9-9-9-9-9-9-9\-| 
A{-1----(1)---/3----(3)---/8-------(8)------\7-7-7-7-7-7-7-7-7-7-7-7\-| 
E{--------------------------------------------------------------------| 
 {Guitar 2 
 { ~~~~~~~~~~~~~~~~~~~~~~~~~~~~~~~~~~~~ 
E{--------------------------------------------------------------------| 
B{--------------------------------------------------------------------| 
G{-------3-----------5----/12\10101010101010\9--9--9--9--9------------| 
D{--------------------------------------------------------------------| 
A{-1-----------3----------/10\8-8-8-8-8-8-8-\7--7--7--7--7------------| 
E{--------------------------------------------------------------------| 
 
 Bass on own plays these notes 
 
 D     C      B   A#  A                
 
 Guitar solo 
 With wah 
  ~~~~~~~~~~~~~~~~~~~~~~~~~~~~~~~~~~~~~~~~~~~~~~~~~~~~~~~~~~~~~~~~~~ 
E-------------------------------------------------------------------| 
B-------------------------------------------------------------------| 
G-7----x-x--9----x-x--10----x-x-13br-12-10-12--13brp10-12-10-10-10--| 
D-------------------------------------------------------------------| 
A-------------------------------------------------------------------| 
E-------------------------------------------------------------------| 
  ~~~~~~~~~~~~~~~~~~~~~~~~~~~~ 
E-------------------------------------------------------------------| 
B-------------------------------------------------------------------| 
G-\9-9-9--10-9-9\7-7-7---/9--/--------------------------------------| 
D-------------------------------------------------------------------| 
A-------------------------------------------------------------------| 
E-------------------------------------------------------------------| 
  ph~~~~~~~~~~   ph~~~~~~~~~~~~~          ~~~~~~~~~~~~~~~~~~~~~~ 
E-------------------------------------------------------------------| 
B-15b------------13b------------15-17-18-20fb----------20fb---------| 
G-------------14----------------------------------------------------| 
D-------------------------------------------------------------------| 
A-------------------------------------------------------------------| 
E-------------------------------------------------------------------| 
   ~~~~~~~ 
E--------------------------------------------13b--r10---------------| 
B-20fb----18--17-------13fb--13bp10----10-------------13-10---------| 
G-----------------17\---------------12----12----------------12br10--| 
D-------------------------------------------------------------------| 
A-------------------------------------------------------------------| 
E-------------------------------------------------------------------| 
   ~~~~~~~~~~~~~~~~~~~~~~~~~~~~~~~~~~~~~~~~~~~~~~~~~~~~~~~~~~~~ 
E-------------------------------------------------------------| 
B--------11fb--r10--------------------------------------------| 
G-12b--------------12-10--12p10--------9-9-9----10-10-10------| 
D--------------------------------12---------------------------| 
A-------------------------------------------------------------| 
E-------------------------------------------------------------| 
                    ~~~~~~~~~~~~~~~~~~~~~    ~~~~~~~~~~~~h ~~~~~~~~ 
E----10----10----10-------------------------18fb------r1718fb-----r-| 
B-/10---10b---13b---13fb-13fb-13fb-13fb--0--------------------------| 
G----------------------------------------0--------------------------| 
D-------------------------------------------------------------------| 
A-------------------------------------------------------------------| 
E-------------------------------------------------------------------| 
     h~~~~~~~~~                h         ~~~~~~~~~   ~~~~~~~~~~~~~~ 
E-1718fb-----r-14b-13-12-13-12-13p12--------------------------------| 
B------------------------------------15-15br15------15br15-----15br-| 
G----------------------------------------------14----------14-------| 
D-------------------------------------------------------------------| 
A-------------------------------------------------------------------| 
E-------------------------------------------------------------------| 
                                     ~~~~ 
E-10-------------10------------------------| 
B----13-10----10----13-10------------------| 
G----------12b------------12bp-10----10----| 
D---------------------------------12-------| 
A------------------------------------------| 
E------------------------------------------| 
 
 
 Guitar doubles up vocal melody 
 D           C            B           A#      A 
 
         ~~~~        ~~~~~       ~~~~~     ~~~~~~~~~~~~ 
E------------------------------------------------------| 
B--10-8-10-----10-8-10------10-8-10-----pb8r--8--------| 
G------------------------------------------------------| 
D------------------------------------------------------| 
A------------------------------------------------------| 
E------------------------------------------------------| Rpt 2 X 
 
  Guitar 1 
     ~~~~~~~~~~~~~~~~~~~~~~~~~~~~~~~~~~~~~~~~~~~~~~~~~~~~~~~~~~ 
E{-------------------------------------------------------------| 
B{--13b-13-13b---13b-13-13b----13b-13-13b--pb13---r------------| 
G{---------------------------------------------------14--------| 
D{-------------------------------------------------------------| 
A{-------------------------------------------------------------| 
E{-------------------------------------------------------------| 
 {Guitar 2 
E{-------------------------------------------------------------| 
B{-------------------------------------------------------------| 
G{-------------------------------------------------------------| 
D{-7-----------5------------4------------3-----------2---------| 
A{-5-----------3------------2------------1-----------0---------| 
E{-------------------------------------------------------------| 
 
  Guitar 1 
     ~~~~~~~~~~~~~~~~~~~~~~~~~~~~~~~~~~~~~~~~~~~~~~~~~~~~~~~~~~ 
E{----------------------------------------------------15--16b--| 
B{--13b-13-13b---13b-13-13b----13b-13-13b-15--17--18-----------| 
G{-------------------------------------------------------------| 
D{-------------------------------------------------------------| 
A{-------------------------------------------------------------| 
E{-------------------------------------------------------------| 
 {Guitar 2 
E{-------------------------------------------------------------| 
B{-------------------------------------------------------------| 
G{-------------------------------------------------------------| 
D{-7-----------5------------4------------3--------2------------| 
A{-5-----------3------------2------------1--------0------------| 
E{-------------------------------------------------------------| 
 
 Outro solo 
 
   ~~~~~~~~~~~~~~~~~~~~~~~~~~~~~~~~~~~~~~~~~~~~~~~~~~~~~~~~~~~~~~~~~ 
E-16b----16b----16b--16b--r-13---------20fb-------20fb-------20fb---| 
B------------------------------15-----------------------------------| 
G-------------------------------------------------------------------| 
D-------------------------------------------------------------------| 
A-------------------------------------------------------------------| 
E-------------------------------------------------------------------| 
                ~~~~~~~~~~~~~~~~~~~~~~~~~~~~~~~~~~~~~~~~~~~~~~~~~~~ 
E-20-17-------------------------------------------------------------| 
B-------20-17-20b-20b-----------------------------------------------| 
G----------------------13b----13b----13b----13b----13b-----13b------| 
D-------------------------------------------------------------------| 
A-------------------------------------------------------------------| 
E-------------------------------------------------------------------| 
 
  ~~~~~~~~~~~~~~~~~~~~~~~~~~~~~~~~~~~~~~~~~~~~~ 
E---------------------------------------------------10-12-13-12-10--| 
B-----------------------------------------8fb--\--------------------| 
G-12-12--13b------10-----10\9-----\7-7-7-------\--------------------| 
D-------------------------------------------------------------------| 
A-------------------------------------------------------------------| 
E-------------------------------------------------------------------| 
   ~~~~~~~~~~~~~~~~~~~~~~~~~~~~~~~~~~~~~~~~~~~~~~~~~~~~~~~~~~~~~~~~~ 
E--------------------------------------10----------------------------| 
B-10-----8----8-9b----10p8----8-13b-------13-10-13b13b13b13b13b13b13b| 
G----------10--------------10----------------------------------------| 
D--------------------------------------------------------------------| 
A--------------------------------------------------------------------| 
E--------------------------------------------------------------------| 
  ~~~~~~~~~~~~~~~~~~~~~~~~~~~~~~~~~~                            ~~~~ 
E-----------------------------------------12-13-12----12-------15b--| 
B-13b----15b-----13b----15b----13b--13-15----------15----15-13------| 
G-------------------------------------------------------------------| 
D-------------------------------------------------------------------| 
A-------------------------------------------------------------------| 
E-------------------------------------------------------------------| 
    ~~~~~~~~~~~~~~~~ 
E--20-----------------------------| 
B---------------------------------| 
G---------------------------------| 
D-------------------To fade-------| 
A---------------------------------| 
E---------------------------------| 
 
 
 
 
 
END 
 
 

	  

Full key step upFull key step up
Half key step upHalf key step up
Half key step downHalf key step down
Full key step downFull key step down
auto scroll beats size up size down change color hide chords drawings
tab show chords e-chords YouTube Clip e-chords hide all tabs e-chords go to top tab

share with facebook

Search Paypal