Scorpions

home > Scorpions

Du Bist So Scmutzig Tab

Scorpions

Difficulty: EasyEasy

by Andre020182

tuner correct add songbook print version text version save to e-mail
chordsukulelecavacokeyboardtabbassdrumsharmonicsflute Guitar Pro
chords

Du Bist So Scmutzig

  		THE TUNNING IS NOT STANDARD 
THE CHORDS ARE 
E B G D A D 
THE 'E' BASS CHORD MUST BE TUNED TO 'D' 
 
---3-2---0-1---1-3------------------------------------------------------------ 
---------------------3-1-3---------------------------------------------------- 
------------------------------------7----------------------------------------- 
------------------------------------7----------------------------------------- 
------------------------------------5----------------------------------------- 
-0-----0-----0-----0---------------------------------------------------------- 
 intro accoustic guitar      elect guitar with effects                         
 
----10-13-10-10-10---15p17-15-13-10----10-13-10-10-10------------------------- 
-13---------------------------------13-----------------8b10-8-6-----6--------- 
----------------------------------------------------------------7-5----------- 
------------------------------------------------------------------------------ 
------------------------------------------------------------------------------ 
------------------------------------------------------------------------------ 
 verse    D    F    C    D    F    C    D    D    F    C    D    F    C    D   
 
----------2----1----0----2----1----0----2----2----1----0----2----1----0----2-- 
----------3----1----1----3----1----1----3----3----1----1----3----1----1----3-- 
----------2----2----0----2----2----0----2----2----2----0----2----2----0----2-- 
----------0----3----2----0----3----2----0----0----3----2----0----3----2----0-- 
----------0----3----3----0----3----3----0----0----3----3----0----3----3----0-- 
------------------------------------------------------------------------------ 
          der atem kalt..........................................voller gier   
 
------------------------------------------------------------------------------ 
------------------------------------------------------------------------------ 
------------------------------------------------------------------------------ 
-------------------0-----------2-----------0-x-x-x-x-x-x-x--------------0----- 
---------2p0-2p0-2---2p0-2p0-2---2p0-2p0-2---2-0--------------2p0-2p0-2------- 
-------------------------------------------------5-3-0-0-0-------------------- 
         damn you slam you..........         (muted notes)                     
 
------------------------------------------------------------------------------ 
------------------------------------------------------------------------------ 
--------------------------2--------------------------------------------------- 
-----------2-----------0--2--------------------------------------------------- 
-2p0-2p0-2---2p0-2p0-2----0--------------------------------------------------- 
------------------------------------------------------------------------------ 
        ....what's your size                                                   
 
------------------------------------------------------------------------------ 
------------------------------------------------------------------------------ 
-----------7-------------7-------------4-------------------------------------- 
-----------7------5------7------7------4------5------7------------------------ 
-----------5------5------5------7------2------5------7------------------------ 
------------------5-------------7-------------5------7------------------------ 
 Chorus    du bist so schmutzig........ich will mich....                       
 
------------------------------------------------------------------------------ 
------------------------------------------------------------------------------ 
------------------------------9----------------------------------------------- 
------------------------------9----7----5-7-----------------------7----5-7---- 
------------------------------7----7----5-7---3-2-0---------------7----5-7---- 
-----------------------------------7----5-7---------5-3-0-3-5b7---7----5-7---- 
 instumental ...zu amusier'n                                      (repeat...}  
 
------------------------------------------------------------------------------ 
------------------------------------------------------------------------------ 
------------------------------------------------------------------------------ 
------------------------------------------------------------------------------ 
-3-2-0------------------------------------------------------------------------ 
-------5-3-0-3-5b7------------------------------------------------------------ 
 and the song continues as before...                                           
 

	  

Full key step upFull key step up
Half key step upHalf key step up
Half key step downHalf key step down
Full key step downFull key step down
Search Paypal
auto scroll beats size up size down change color hide chords drawings
tab show chords e-chords YouTube Clip e-chords hide all tabs e-chords go to top tab