Scorpions

home > Scorpions

Catch Your Train Tab

Scorpions

Difficulty: ExpertExpert

by Evans+Hossel

tuner correct add songbook print version text version save to e-mail
chordsukulelecavacokeyboardtabbassdrumsharmonicsflute Guitar Pro
chords

Catch Your Train

Year: 1976 - Album: Virgin Killer

  		RIFF 1 
E:--17--12------------------------------------------------| 
B:----------15--12------15--12----------------------------| 
G:------------------15----------15--14--12------14----12--| 
D:------------------------------------------14------------| 
A:--------------------------------------------------------| 
E:--------------------------------------------------------| 
 
 
RIFF 2 
E:--17--12----------12---------------------------------------| 
B:----------15--14------15--14--12--15--14--12-----14-12-----| 
G:----------------------------------------------14-------14--| 
D:-----------------------------------------------------------| 
A:-----------------------------------------------------------| 
E:-----------------------------------------------------------| 
 
E:-----------------------------------------------------------| 
B:-----12----------------------------------------------------| 
G:--12----14-12--11-14-12-11-----12-11---------11------------| 
D:----------------------------14-------14--12------14--12----| 
A:-----------------------------------------------------------| 
E:-----------------------------------------------------------| 
 
E:-----------------------------------------------------------| 
B:-----------------------------------------------------------| 
G:---------------------------------------------11--14--12----| 
D:--11-----------------------------11--12--14----------------| 
A:------14-12--10------10--12--14----------------------------| 
E:-----------------14----------------------------------------| 
 
 
RIFF 3 
E:----------------------------------------15--14----------| 
B:------------12--15--14----------14--15----------15--17--| 
G:--12----14--------------14--16--------------------------| 
D:--------------------------------------------------------| 
A:--------------------------------------------------------| 
E:--------------------------------------------------------| 
 
E:--17--14--12--------------------------------------------| 
B:--------------15--14--12--17--15--14--------------------| 
G:--------------------------------------16--14--12----11--| 
D:--------------------------------------------------------| 
A:--------------------------------------------------------| 
E:--------------------------------------------------------| 
 
 
RIFF 4 
E:--------------13-16--------------14-17--------------15-18--| 
B:-----------15-----------------16-----------------17--------| 
G:-----13-16--------------14-17--------------15-18-----------| 
D:--15-----------------16-----------------17-----------------| 
A:-----------------------------------------------------------| 
E:-----------------------------------------------------------| 
 

	  

Search Paypal
auto scroll beats size up size down change color hide chords drawings
tab show chords e-chords YouTube Clip e-chords hide all tabs e-chords go to top tab