Scorpions

home > Scorpions

Can't Get Enough Tab

Scorpions

Difficulty: BeginnerBeginner

by Binbags

tuner correct add songbook print version text version save to e-mail
chordsukulelecavacokeyboardtabbassdrumsharmonicsflute Guitar Pro
chords

Can't Get Enough

Year: 1979 - Album: Lovedrive

  		 
Transcribed By: Steve 
Email:          [email protected] 
 
 
.  - palm mute           /  - slide up to 
\  - slide down to       ~  - vibrato 
h  - hammer on           b  - Bend 
p  - pull off            Suffixes for bend 
t  - tap                 f  - full bend    h - half bend 
ph - pinched harmonic    q  - quarter bend t - tap bend 
                         p  - pre bend 
*  - see comment         ^  - Hold bend    r release bend 
x  - Stuccatto           ~  - vibrato bend 
,  - slight palm mute    () - ghost note, sustained note 
"  - tremolo note        <> - harmonic 
 
Tuning E A D G B E 
 
 Main Riff 
    h 
|-----------------------------------------------------------| 
|-------------------------------------------7p5-7p5-7p5-7p5-| 
|-5-------------5-------------5-------------7p5-7p5-7p5-7p5-| 
|-5-7---7-7-7-7-5-7---7-7-7-7-5-7---7-7-7-7-----------------| 
|-----000-0-0-0-----000-0-0-0-----000-0-0-0-----------------| 
|-----------------------------------------------------------| Rpt 4 X 
 
 
 Verse 
 
 Guitar 1 
  {--------------PM---------------} ~~~~~~~~~ 
{--------------------------------------------| 
{--------------------------------------------| 
{--------------------------------------------| 
{-5-7--------5-7--------5-7------------------| 
{-0-0-00-000-0-0-00-000-0-0-00-000-3--2------| 
{----------------------------------------3---|  
{Guitar 1 
{ {--------------PM---------------} ~~~~~~~~~ 
{--------------------------------------------| 
{--------------------------------------------| 
{--------------------------------------------| 
{-0-2--------0-2--------0-2------------------| 
{-0-0-00-000-0-0-00-000-0-0-00-000-3--2------| 
{----------------------------------------3---| Rpt 
 
 Chorus 
 
|------------------------------------------| 
|------------------------------------------| 
|------------------------------------------| 
|------------------------------------------| 
|-2-----------------(2)------------------2-| 
|-0-----------------(0)------------------0-| 
 
 Rpt Main Riff 4 X 
 Rpt Verse 
 
 Last time 
 
 Guitar 1 
  {--------------PM---------------} ~~~~~~~~~ 
{--------------------------------------------| 
{--------------------------------------------| 
{--------------------------------------------| 
{-5-7--------5-7--------5-7------------------| 
{-0-0-00-000-0-0-00-000-0-0-00-000-3--2------| 
{----------------------------------------3---|  
{Guitar 1 
{ {--------------PM---------------} ~~~~~~~~~ 
{--------------------------------------------| 
{--------------------------------------------| 
{----------------------------------5--4------| 
{-0-2--------0-2--------0-2--------------5---| 
{-0-0-00-000-0-0-00-000-0-0-00-000-----------| 
{--------------------------------------------|  
 
 Rpt Chorus 
 
 Rpt Main Riff 8 X for backing for guitar solo 
 
 Guitar solo 
 
    h 
|--------------------------------------------| 
|-5-8p-5-trill and depress trem and pull up--| 
|--------------------------------------------| 
|--------------------------------------------| 
|--------------------------------------------| 
|--------------------------------------------| 
 
 
|-------------------------------------------------------------| 
|-------------------------------------------------------------| 
|-5-pull up-depress trem-5-pull up-depress trem-pull up-5-----| 
|---------------------------------------------------------7p5-| 
|-------------------------------------------------------------| 
|-------------------------------------------------------------| 
 
                  ~~~~ 
|-----------------------------------------------------------------------| 
|-----------------------------------------------------------------------| 
|-5-7-7b--r--p5-0--------/7fb hold and trem pick gradually releasing-7\-| 
|-----------------------------------------------------------------------| 
|-----------------3--p0-------------------------------------------------| 
|-----------------------------------------------------------------------| 
 
  {PM}ph   {-PM-}   ~~          ~~~~~~~~~               ~~~~ 
|-------------------------------------------------------------| 
|------------------13--15--13--15fb------15fbr15-13-----------| 
|-2-0------2-0-----12b------------------------------14-14b--\-| 
|--------------0----------------------------------------------| 
|-----3b---------3--------------------------------------------| 
|-------------------------------------------------------------| 
 
 
|----------------------------------------------------------------| 
|----8-8-8-------8-8---------------------------------------------| 
|-/9--------9---------9\-----12-14fb--14fb--16fb-16b16b-16p14p12-| 
|------------------------/14-------------------------------------| 
|----------------------------------------------------------------| 
|----------------------------------------------------------------| 
 
          ~~~~~~~~~~~~~~~~~~~ 
|--------15fb----------------| 
|----------------------------| 
|-----12---------------------| 
|-/14------------------------| 
|----------------------------| 
|----------------------------| 
 
 
 Rpt Verse and Chorus 
 
 Rpt Main Riff to fade 
 
 Outro guitar solo 
 
|-----15-12-----15-12-----15-12-----15-12-----15-12-----15-12-------| 
|-15b-------15b-------15b-------15b-------15b-------15b-------15b---| 
|-------------------------------------------------------------------| 
|-------------------------------------------------------------------| 
|-------------------------------------------------------------------| 
|-------------------------------------------------------------------| 
 
                       ~~~~~~~~~~~~ 
|--15-12-----15-12----17fb---------17b17b17br---------------| 
|--------15b-------15-------------------------13-trem dive--| 
|-----------------------------------------------------------| 
|-----------------------------------------------------------| 
|-----------------------------------------------------------| 
|-----------------------------------------------------------| 
 
 
|----------------------------------------------------------------------| 
|--------------------------------------------------------131313131313\-| 
|-<5><5><5><5><5><5>-<5><5><5><5><5><5><5><5>-trem dive-/141414141414\-| 
|-------------------4--------------------------------------------------| 
|----------------------------------------------------------------------| 
|----------------------------------------------------------------------| 
 
                                            ~~~~~~~~~~       ~~~~~~~~ 
|-------------------------------------1515-15fb-------------20fb-----| 
|--------------------------------------------------------------------| 
|-<5><5><5><5><5><5><5><5><5><5><5><5>---------------<5>-------------| 
|-------------------------------------------------------<5>----------| 
|--------------------------------------------------------------------| 
|--------------------------------------------------------------------| 
 
                                            ~~~~~~~~~~~ 
|-20fb-20fb-20fb-20fb---slow trem dive---20fb----------17----17--| 
|---------------------------------------------------------20-----| 
|----------------------------------------------------------------| 
|----------------------------------------------------------------| 
|----------------------------------------------------------------| 
|----------------------------------------------------------------| 
 
 
END 
 
 

	  

Full key step upFull key step up
Half key step upHalf key step up
Half key step downHalf key step down
Full key step downFull key step down
Search Paypal
auto scroll beats size up size down change color hide chords drawings
tab show chords e-chords YouTube Clip e-chords hide all tabs e-chords go to top tab