Scars on Broadway

Guns Are Loaded

Scars on Broadway

tabs Beginner beginner

by  MAR-GOBBO

save to print version add songbook text version e-mail correct tuner
chordsukulelecavacokeyboardtabbassdrumsharmonicaflute Guitar Pro
close

there isn't a video lesson for this song

chords

Guns Are Loaded

(Malakian)

	  		
		

Tuning: C# G# C# F# A# D#

Intro:
D|------------------------|--------------------|
A|------------------------|--------------------|
F|------------------------|--------------------|
C|-----3---5---3---3----2-|----2---3---2-------|
G|---------------0---0----|------0---0---0-----|
C|--0---------------------|-0------------------|


Parte 2 
D|------------------------|--------------------|
A|------------------------|--------------------|
F|------------------------|--------------------|
C|-----3---5---3---3----2-|----2---3---2-------|
G|---------------0---0----|------0---0---0-----|
C|--0---------------------|-0------------------|

Riff


D|------------------|------------------|--------------------------------------------|
A|------------------|------------------|--------------------------------------------|
F|------------------|------------------|--------------------------------------------|
C|--0-0-------------|-0-0-----------2--|-0-0----------------------------------------|
G|--0-0--3---5---5--|-0-0---2---3------|-0-0--3--5--7/8----1287---8-7-0----8-7-0--|
C|--0-0-------------|-0-0--------------|-0-0----------------------------------------|

Chorus

D|------------------|------------------|--------------------------------------------|
A|------------------|------------------|--------------------------------------------|
F|------------------|------------------|--------------------------------------------|
C|--0-0-------------|-0-0-----------2--|-0-0----------------------------------------|
G|--0-0--3---5---5--|-0-0---2---3------|-0-0--3--5--7/8----1287---8-7-0----8-7-0--|
C|--0-0-------------|-0-0--------------|-0-0----------------------------------------|

Bridge

D|------------------|-----------------------|
A|------------------|-----------------------|
F|------------------|-----------------------|
C|--8-8-8-8-8-8-8-8-|-10-10-10-10-10-10-10--|
G|--8-8-8-8-8-8-8-8-|-10-10-10-10-10-10-10--|
C|--8-8-8-8-8-8-8-8-|-10-10-10-10-10-10-10--|

Chorus

D|------------------|------------------|--------------------------------------------|
A|------------------|------------------|--------------------------------------------|
F|------------------|------------------|--------------------------------------------|
C|--0-0-------------|-0-0-----------2--|-0-0----------------------------------------|
G|--0-0--3---5---5--|-0-0---2---3------|-0-0--3--5--7/8----1287---8-7-0----8-7-0--|
C|--0-0-------------|-0-0--------------|-0-0----------------------------------------|


D|------------------|-----------------------|
A|------------------|-----------------------|
F|------------------|-----------------------|
C|--8-8-8-8-8-8-8-8-|-10-10-10-10-10-10-10--|
G|--8-8-8-8-8-8-8-8-|-10-10-10-10-10-10-10--|
C|--8-8-8-8-8-8-8-8-|-10-10-10-10-10-10-10--|

End

D|---------------------------------------------------------|
A|---------------------------------------------------------|
F|---------------------------------------------------------|
C|--0-0-0-0-0-0--3-3-3-3-3-3--2-2-2-2-2-2-2-2-2-2-2-2-2-2--|
G|--0-0-0-0-0-0--3-3-3-3-3-3--2-2-2-2-2-2-2-2-2-2-2-2-2-2--|
C|--0-0-0-0-0-0--3-3-3-3-3-3--2-2-2-2-2-2-2-2-2-2-2-2-2-2--|



D|------------------|------------------|--------------------------------------------|
A|------------------|------------------|--------------------------------------------|
F|------------------|------------------|--------------------------------------------|
C|--0-0-------------|-0-0-----------2--|-0-0----------------------------------------|
G|--0-0--3---5---5--|-0-0---2---3------|-0-0--3--5--7/8----1287---8-7-0----8-7-0--|
C|--0-0-------------|-0-0--------------|-0-0----------------------------------------|

D|----------|
A|----------|
F|----------|
C|--0-------|
G|--0-------|
C|--0-------|
 
		  

See also:

tabs Linkin Park - By Myself tabs Evanescence - My imortal tabs Linkin Park - In the end tabs Linkin Park - Easier to run tabs Godsmack - I stand alone tabs Linkin Park - On Step Closer
e-chords

Other versions:

tabs Scars on Broadway - Guns Are Loaded
auto scroll beats size up size down change color hide chords drawings
tab show chords e-chords YouTube Clip e-chords hide all tabs e-chords go to top tab

share