Scar Symmetry

The Three-dimensional Shadow

Scar Symmetry

tabs

by  ROBEPOIEL

save to print version add songbook text version e-mail correct tuner
chordsukulelecavacokeyboardtabbassdrumsharmonicaflute Guitar Pro
close

there isn't a video lesson for this song

chords

The Three-dimensional Shadow

	  		Intro: 

|---------------------------------------------------------| 
|---------------------------------------------------------| 
|---------------------------------------------------------| 
|---------------------------------------------------------| 
|---------------------------------------------------------| 
|-2--2--2--2--2--2--2--2--2--2--2--2--2--2--2--2--2--2----| 
|-2--2--2--2--2--2--2--2--2--2--2--2--2--2--2--2--2--2----| 
|-0--0--0--0--0--0--0--0--0--0--0--0--0--0--0--0--0--0----| 

Verse (x2): 

|---------------------------------------------------------------------------------| 
|---------------------------------------------------------------------------------| 
|---------------------------------------------------------------------------------| 
|---------------------------------------------------------------------------------| 
|---------------------------------------------------------------------------------| 
|---------------------------------------------------------------------------------| 
|---------------------------------------------------------------------------------| 
|-2-2-2-2-2-2-2--5-5-5-5-5-5-5-5--0-0-0-0--7-7-7-7-7-7-7--8-8-8-8-8-8-8--5-5-5-5--| 

|---------------------------------------------------------------------------------| 
|---------------------------------------------------------------------------------| 
|---------------------------------------------------------------------------------| 
|---------------------------------------------------------------------------------| 
|---------------------------------------------------------------------------------| 
|---------------------------------------------------------------------------------| 
|------------------------------------------------------------------------7-9-7----| 
|-2-2-2-2-2-2-2--5-5-5-5-5-5-5-5--0-0-0-0--7-7-7-7-7-7-7--8-8-8-8-8-8-8-----------| 

Pre-Chorus (x4): 

|-------------------------------------------------------------------| 
|-------------------------------------------------------------------| 
|-------------------------------------------------------------------| 
|-------------------------------------------------------------------| 
|-------3-----------5---------3-4------------5---------3---------4--| 
|-2-4-5---5-4-2-4-5---5-4-2-4------5-4-2-4-5---5-4-2-4---4-5-5-5----| 
|-------------------------------------------------------------------| 
|-------------------------------------------------------------------| 

Chorus (x2): 

|-------------------------------------------------------------------| 
|-------------------------------------------------------------------| 
|-------------------------------------------------------------------| 
|-------------------------------------------------------------------| 
|-------------------------------------------------------------------| 
|-------------------------------------------------------------------| 
|-------------------------------------------------------------------| 
|-10-10-10-10-10-10-0--10-0-10--0--10--0-0-0-0-0-0-0-0--9-0-9-0--9--| 

|----------------------------------------------------------| 
|----------------------------------------------------------| 
|----------------------------------------------------------| 
|----------------------------------------------------------| 
|----------------------------------------------------------| 
|----------------------------------------------------------| 
|----------------------------------------------------------| 
|-8-8-8-8-8-8-0--8-0-8--0--8--0-0-0-0-0-0-0-0--7-0-7-0--7--| 

Fill: 

|-----------------------------------------------------------------| 
|-----------------------------------------------------------------| 
|-----------------------------------------------------------------| 
|-----------------6-6-6-7-7-7-4-4-----------------6-6-6-7-7-7-4/--| 
|-6-6-6-9-9-9-4-4-4-4-4-5-5-5-2-2-6-6-6-9-9-9-4-4-4-4-4-5-5-5-2/--| 
|-4-4-4-7-7-7-2-2-----------------4-4-4-7-7-7-2-2-----------------| 
|-----------------------------------------------------------------| 
|-----------------------------------------------------------------| 

Verse (x2): 

|---------------------------------------------------------------------------------| 
|---------------------------------------------------------------------------------| 
|---------------------------------------------------------------------------------| 
|---------------------------------------------------------------------------------| 
|---------------------------------------------------------------------------------| 
|---------------------------------------------------------------------------------| 
|---------------------------------------------------------------------------------| 
|-2-2-2-2-2-2-2--5-5-5-5-5-5-5-5--0-0-0-0--7-7-7-7-7-7-7--8-8-8-8-8-8-8--5-5-5-5--| 

|---------------------------------------------------------------------------------| 
|---------------------------------------------------------------------------------| 
|---------------------------------------------------------------------------------| 
|---------------------------------------------------------------------------------| 
|---------------------------------------------------------------------------------| 
|---------------------------------------------------------------------------------| 
|------------------------------------------------------------------------7-9-7----| 
|-2-2-2-2-2-2-2--5-5-5-5-5-5-5-5--0-0-0-0--7-7-7-7-7-7-7--8-8-8-8-8-8-8-----------| 

Pre-Chorus (x4): 

|-------------------------------------------------------------------| 
|-------------------------------------------------------------------| 
|-------------------------------------------------------------------| 
|-------------------------------------------------------------------| 
|-------3-----------5---------3-4------------5---------3---------4--| 
|-2-4-5---5-4-2-4-5---5-4-2-4------5-4-2-4-5---5-4-2-4---4-5-5-5----| 
|-------------------------------------------------------------------| 
|-------------------------------------------------------------------| 

Chorus (x2): 

|-------------------------------------------------------------------| 
|-------------------------------------------------------------------| 
|-------------------------------------------------------------------| 
|-------------------------------------------------------------------| 
|-------------------------------------------------------------------| 
|-------------------------------------------------------------------| 
|-------------------------------------------------------------------| 
|-10-10-10-10-10-10-0--10-0-10--0--10--0-0-0-0-0-0-0-0--9-0-9-0--9--| 

|----------------------------------------------------------| 
|----------------------------------------------------------| 
|----------------------------------------------------------| 
|----------------------------------------------------------| 
|----------------------------------------------------------| 
|----------------------------------------------------------| 
|----------------------------------------------------------| 
|-8-8-8-8-8-8-0--8-0-8--0--8--0-0-0-0-0-0-0-0--7-0-7-0--7--| 

Bridge: 

|---------------------------------------------------------------------------------------| 
|---------------------------------------------------------------------------------------| 
|---------------------------------------------------------------------------------------| 
|---------------------------------------------------------------------------------------| 
|---------------------------------------------------------------------------------------| 
|---------------------------------------------------------------------------------------| 
|---------------------------------------------------------------------------------------| 
|-3-3-3--6--3-3-3--5--3-3-3--6--3-3-3--5...--5-5-5--8--5-5-5--7--5-5-5--8--5-5-5--7...--| 

Solo (only rhytm part, sorry) 

|--------------------------------------------------------------| 
|--------------------------------------------------------------| 
|--------------------------------------------------------------| 
|--------------------------------------------------------------| 
|--------------------------------------------------------------| 
|-4----5--5--5----4----10--10--10------------------------------| 
|-4----5--5--5----4----10--10--10------------------------------| 
|-2----3--3--3----2-----8---8---8...-3-3-3--3-3-3--3--3--3--3--| 

|----------------------------------------------------------------| 
|----------------------------------------------------------------| 
|----------------------------------------------------------------| 
|----------------------------------------------------------------| 
|----------------------------------------------------------------| 
|----------------------------------------------------------------| 
|----------------------------------------------------------------| 
|-3-3-3-3-3-3-3-3-3-3-3-3-3-3-3-3-3-3-3-3-3-3-3-3-3-3-3-3-3-3-3--| 
                                                                    x2 
|----------------------------------------------------------------| 
|----------------------------------------------------------------| 
|----------------------------------------------------------------| 
|----------------------------------------------------------------| 
|----------------------------------------------------------------| 
|----------------------------------------------------------------| 
|-------------------------------------------3-3-3-3-3-3-3-3-3-3--| 
|-5-5-5-5-5-5-5-5-5-1-1-1-1-1-1-1-1-1-1-1-1----------------------| 

|-------------------------------| 
|-------------------------------| 
|-------------------------------| 
|-------------------------------| 
|-------------------------------| 
|-5------4------13------10--4---| 
|-5------4------13------10--4---| 
|-3------2------11------8---2---| 

|---------------------------------------------------------------------------------| 
|---------------------------------------------------------------------------------| 
|---------------------------------------------------------------------------------| 
|---------------------------------------------------------------------------------| 
|---------------------------------------------------------------------------------| 
|---------------------------------------------------------------------------------| 
|---------------------------------------------------------------------------------| 
|-2-2-2-2-2-2-2--5-5-5-5-5-5-5-5--0-0-0-0--7-7-7-7-7-7-7--8-8-8-8-8-8-8--5-5-5-5--| 

|---------------------------------------------------------------------------------| 
|---------------------------------------------------------------------------------| 
|---------------------------------------------------------------------------------| 
|---------------------------------------------------------------------------------| 
|---------------------------------------------------------------------------------| 
|---------------------------------------------------------------------------------| 
|------------------------------------------------------------------------7--------| 
|-2-2-2-2-2-2-2--5-5-5-5-5-5-5-5--0-0-0-0--7-7-7-7-7-7-7--8-8-8-8-8-8-8-----------| 

Pre-Chorus (x4): 

|-------------------------------------------------------------------| 
|-------------------------------------------------------------------| 
|-------------------------------------------------------------------| 
|-------------------------------------------------------------------| 
|-------3-----------5---------3-4------------5---------3---------4--| 
|-2-4-5---5-4-2-4-5---5-4-2-4------5-4-2-4-5---5-4-2-4---4-5-5-5----| 
|-------------------------------------------------------------------| 
|-------------------------------------------------------------------| 

Chorus (x4): 

|-------------------------------------------------------------------| 
|-------------------------------------------------------------------| 
|-------------------------------------------------------------------| 
|-------------------------------------------------------------------| 
|-------------------------------------------------------------------| 
|-------------------------------------------------------------------| 
|-------------------------------------------------------------------| 
|-10-10-10-10-10-10-0--10-0-10--0--10--0-0-0-0-0-0-0-0--9-0-9-0--9--| 

|----------------------------------------------------------| 
|----------------------------------------------------------| 
|----------------------------------------------------------| 
|----------------------------------------------------------| 
|----------------------------------------------------------| 
|----------------------------------------------------------| 
|----------------------------------------------------------| 
|-8-8-8-8-8-8-0--8-0-8--0--8--0-0-0-0-0-0-0-0--7-0-7-0--7--| 
		  

See also:

tabs Hammerfall - Riders of the Storm tabs Hammerfall - At the End of the Raiwbow tabs Bathory - The Lake tabs Hammerfall - Hearts on Fire tabs Hammerfall - Renegade tabs Hammerfall - In Memoriam
e-chords

Other versions:

tabs Scar Symmetry - The Three-dimensional Shadow
auto scroll beats size up size down change color hide chords drawings
tab show chords e-chords YouTube Clip e-chords hide all tabs e-chords go to top tab

share