Sawyer Fredericks

Shots Fired

Sawyer Fredericks

tabs

by  ABELAMIN

save to print version add songbook text version e-mail correct tuner
chordsukulelecavacokeyboardtabbassdrumsharmonicaflute Guitar Pro
close

there isn't a video lesson for this song

chords

Shots Fired

	  		
Intro 

  x4 
e|-4----0----0----0-| 
B|-5----0----2----2-| 
G|-6----1----2----2-| 
D|-6----2----2----2-| 
A|-4----2----0----0-| 
E|-4----0----0----0-| 


Verse 

  x8 
e|-4----0----0----0-| 
B|-5----0----2----2-| 
G|-6----1----2----2-| 
D|-6----2----2----2-| 
A|-4----2----0----0-| 
E|-4----0----0----0-| 


Chorus 

e|-4----0----4----4--2--4----0----4----4--2--4---0---4---4--2--4----0----4----4--2-| 
B|-5----0----4----5--4--5----0----4----5--4--5---0---4---5--4--5----0----4----5--4-| 
G|-6----1----5----6--4--6----1----5----6--4--6---1---5---6--4--6----1----5----6--4-| 
D|-6----2----5----6--4--6----2----5----6--4--6---2---6---6--4--6----2----6----6--4-| 
A|-4----2----6----4--2--4----2----6----4--2--4---2---6---4--2--4----2----6----4--2-| 
E|-4----0----4----4--2--4----0----4----4--2--4---0---4---4--2--4----0----4----4--2-| 


Pre-Verse 

  x2 
e|-4----0----0----0-| 
B|-5----0----2----2-| 
G|-6----1----2----2-| 
D|-6----2----2----2-| 
A|-4----2----0----0-| 
E|-4----0----0----0-| 


Verse 

  x8 
e|-4----0----0----0-| 
B|-5----0----2----2-| 
G|-6----1----2----2-| 
D|-6----2----2----2-| 
A|-4----2----0----0-| 
E|-4----0----0----0-| 


Chorus 

e|-4----0----4----4--2--4----0----4----4--2--4---0---4---4--2--4----0----4----4--2-| 
B|-5----0----4----5--4--5----0----4----5--4--5---0---4---5--4--5----0----4----5--4-| 
G|-6----1----5----6--4--6----1----5----6--4--6---1---5---6--4--6----1----5----6--4-| 
D|-6----2----5----6--4--6----2----5----6--4--6---2---6---6--4--6----2----6----6--4-| 
A|-4----2----6----4--2--4----2----6----4--2--4---2---6---4--2--4----2----6----4--2-| 
E|-4----0----4----4--2--4----0----4----4--2--4---0---4---4--2--4----0----4----4--2-| 


Pre-Verse 

  x2 
e|-4----0----0----0-| 
B|-5----0----2----2-| 
G|-6----1----2----2-| 
D|-6----2----2----2-| 
A|-4----2----0----0-| 
E|-4----0----0----0-| 


Verse 

  x4 
e|-4----0----0----0-| 
B|-5----0----2----2-| 
G|-6----1----2----2-| 
D|-6----2----2----2-| 
A|-4----2----0----0-| 
E|-4----0----0----0-| 


Chorus 

e|-4----0----4----4--2--4----0----4----4--2--4---0---4---4--2--4----0----4----4--2-| 
B|-5----0----4----5--4--5----0----4----5--4--5---0---4---5--4--5----0----4----5--4-| 
G|-6----1----5----6--4--6----1----5----6--4--6---1---5---6--4--6----1----5----6--4-| 
D|-6----2----5----6--4--6----2----5----6--4--6---2---6---6--4--6----2----6----6--4-| 
A|-4----2----6----4--2--4----2----6----4--2--4---2---6---4--2--4----2----6----4--2-| 
E|-4----0----4----4--2--4----0----4----4--2--4---0---4---4--2--4----0----4----4--2-| 


Outro 

  x2 
e|-4----0----0----0-| 
B|-5----0----2----2-| 
G|-6----1----2----2-| 
D|-6----2----2----2-| 
A|-4----2----0----0-| 
E|-4----0----0----0-| 


End 

e|-4-| 
B|-5-| 
G|-6-| 
D|-6-| 
A|-4-| 
E|-4-| 
		  

See also:

tabs Deep Purple - Black Night tabs Deep Purple - Soldier Of Fortune tabs Deep Purple - Demon's Eye tabs Ira! - Envelheço na Cidade tabs Deep Purple - Smoke on the Water (correct) tabs Ira! - Tarde Vazia (Acústico)
e-chords

Other versions:

tabs Slash - Shots Fired tabs Sawyer Fredericks - Shots Fired
auto scroll beats size up size down change color hide chords drawings
tab show chords e-chords YouTube Clip e-chords hide all tabs e-chords go to top tab

share