Savage Messiah

Insurrection Rising

Savage Messiah

tabs

by  HEBEALMEIDA

save to print version add songbook text version e-mail correct tuner
chordsukulelecavacokeyboardtabbassdrumsharmonicaflute Guitar Pro
close

there isn't a video lesson for this song

chords

Insurrection Rising

	  		

Tuning: C#, G#, C#  F#, A#, D# 


   Fast Rock = 180bpm 

 Intro: 
                                                       1.               2. 
 |----------------------------------------------------|----------------|----------------| 
 |----------------------------------------------------|----------------|----------------| 
 |----------------------------------------------------|----------------|----------------| 
 |--h-p-p------------h-p-p------------h-p-p-----------|----------------|----------------| 
 |-3-5-3-0---5------3-5-3-0---6------3-5-3-0---5------|-6---5----3-5-6-|-6---5----3-5-6-| 
 |---------0---0000---------0---0000-------------0000-|---0---00-------|-6-0-5-00-3-5-6-| 



 Verse: 

 |---------------------------------------------------------------| 
 |---------------------------------------------------------------| 
 |---------------------------------------------------------------| 
 |--------------------------p----------------------8----7----5/7-| 
 |---------6---------------6-5-------------6-------6----5----3/5-| 
 |-0-000-0-6-0-0-000-000-0-6-5-0-000-000-0-6-0-0-00--000--000----| 

  ----------------------------------------------------------------| 
  ----------------------------------------------------------------| 
  ----------------------------------------------------------------| 
  --------------------------h-------------------------------------| 
  ---------6---------------3-5-------------6-------6----5-----3/5-| 
  -0-000-0-6-0-0-000-000-0-3-5-0-000-000-0-6-0-0-006-0005--0003/5-| 



 Bridge: 

 |-------------------------------------------------------------------| 
 |-------------------------------------------------------------------| 
 |-------------------------------------------------------------------| 
 |-------------------------------------------------------------------| 
 |---3-5---3-5---3-6---3-5---3-5-----3-5---3-5---3-6---3-5---3-5~----| 
 |-0-----0-----0-----0-----0-----0-0-----0-----0-----0-----0---------| 



 |---------------------------------------------------------| 
 |---------------------------------------------------------| 
 |---------------------------------------------------------| 
 |-------------------------------------------------10--8---| 
 |---3-5---3-5---3-6---3-5---3-5-----3-5---3-5-----8---6---| 
 |-0-----0-----0-----0-----0-----0-0-----0-----0-0---------| 


 Chorus: 

 |-----------------------------------------------------------------| 
 |-----------------------------------------------------------------| 
 |-----------------------------------------------------------------| 
 |---------5/7-------------8\5-------------5/7-----8-----7-----5/3-| 
 |---------3/5-------------6\5-------------3/5-----6-----5-----3/5-| 
 |-000-000-----0-0-000-000-----0-0-000-000-----0-0---0-0---0-0-----| 

 |-----------------------------------------------------------------| 
 |-----------------------------------------------------------------| 
 |-----------------------------------------------------------------| 
 |---------5/7-------------8\5-------------5/7---------------------| 
 |---------3/5-------------6\5-------------3/5-----0---------------| 
 |-000-000-----0-0-000-000-----0-0-000-000-----000-0---------------| 


 Middle 8: 

 |--------------------------------------------------------------| 
 |--------------------------------------------------------------| 
 |------------------h-p----------------------------h-p----------| 
 |---------------5-4-5-4------h-----------------5-4-5-4-----5---| 
 |-------p---------------6---3-5--------p---------------6---3---| 
 |-0000-1-0-0-00-----------0------0000-1-0-0-00-----------0-----| 


 Solo 1: 

 |------------------------------------------| 
 |------------------------------------------| 
 |------------------------------------------| 
 |----5---3---------------5---3-------------| 
 |-0--3---1---3---2---0---3---1-------------| 
 |-0----------3---2---0-----------000000000-| 

 Solo 2: 

 |-------------------------------------------------------| 
 |-------------------------------------------------------| 
 |-------------------------------------------------------| 
 |-------------------------------------------------------| 
 |-------p---------------------------p-----------------6-| 
 |-0000-3-0-0-00-3-5-0-3-5-6-3-0000-3-0-0-00-3-5-0-3-5-6-| 


 Verse: 

 |---------------------------------------------------------------| 
 |---------------------------------------------------------------| 
 |---------------------------------------------------------------| 
 |--------------------------p----------------------8----7----5/7-| 
 |---------6---------------6-5-------------6-------6----5----3/5-| 
 |-0-000-0-6-0-0-000-000-0-6-5-0-000-000-0-6-0-0-00--000--000----| 

  ----------------------------------------------------------------| 
  ----------------------------------------------------------------| 
  ----------------------------------------------------------------| 
  --------------------------h-------------------------------------| 
  ---------6---------------3-5-------------6-------6----5-----3/5-| 
  -0-000-0-6-0-0-000-000-0-3-5-0-000-000-0-6-0-0-006-0005--0003/5-| 



 Bridge: 

 |-------------------------------------------------------------------| 
 |-------------------------------------------------------------------| 
 |-------------------------------------------------------------------| 
 |-------------------------------------------------------------------| 
 |---3-5---3-5---3-6---3-5---3-5-----3-5---3-5---3-6---3-5---3-5~----| 
 |-0-----0-----0-----0-----0-----0-0-----0-----0-----0-----0---------| 



 |---------------------------------------------------------| 
 |---------------------------------------------------------| 
 |---------------------------------------------------------| 
 |-------------------------------------------------10--8---| 
 |---3-5---3-5---3-6---3-5---3-5-----3-5---3-5-----8---6---| 
 |-0-----0-----0-----0-----0-----0-0-----0-----0-0---------| 



 Chorus: 

 |-----------------------------------------------------------------| 
 |-----------------------------------------------------------------| 
 |-----------------------------------------------------------------| 
 |---------5/7-------------8\5-------------5/7-----8-----7-----5/3-| 
 |---------3/5-------------6\5-------------3/5-----6-----5-----3/5-| 
 |-000-000-----0-0-000-000-----0-0-000-000-----0-0---0-0---0-0-----| 

 |-----------------------------------------------------------------| 
 |-----------------------------------------------------------------| 
 |-----------------------------------------------------------------| 
 |---------5/7-------------8\5-------------5/7---------------------| 
 |---------3/5-------------6\5-------------3/5-----0---------------| 
 |-000-000-----0-0-000-000-----0-0-000-000-----000-0---------------| 


 Outro: 
                                                       1.               2. 
 |----------------------------------------------------|----------------|----------------| 
 |----------------------------------------------------|----------------|----------------| 
 |----------------------------------------------------|----------------|----------------| 
 |--h-p-p------------h-p-p------------h-p-p-----------|----------------|----------------| 
 |-3-5-3-0---5------3-5-3-0---6------3-5-3-0---5------|-6---5----3-5-6-|-6---5----3-5-6-| 
 |---------0---0000---------0---0000-------------0000-|---0---00-------|-6-0-5-00-3-5-6-| 
		  

Full key step upFull key step up
Half key step upHalf key step up
Half key step downHalf key step down
Full key step downFull key step down
hide glossary

See also:

tabs Savage Messiah - In Thought Alone tabs Savage Messiah - The Fateful Dark tabs Savage Messiah - The Accuser tabs Savage Messiah - Carnival Of Souls tabs Alien Ant Farm - Smooth criminal tabs Alien Ant Farm - Whisper
e-chords

Other versions:

tabs Savage Messiah - Insurrection Rising
auto scroll beats size up size down change color hide chords drawings
tab show chords e-chords YouTube Clip e-chords hide all tabs e-chords go to top tab

share