Satellite

No Disgrace

Satellite

tabs

by  GUSTSILVA

save to print version add songbook text version e-mail correct tuner
chordsukulelecavacokeyboardtabbassdrumsharmonicaflute Guitar Pro
close

there isn't a video lesson for this song

chords

No Disgrace

	  		
Tuning = Standard 


This is the Neo Prog Group From Poland 


INTRO 
******      h     h  p       h     h  p       h     h  p       h     h  p  s     h                         
e|-22-20--19-20-19-20-19-|-17-19-17-19-17-|-15-17-15-17-15-|-13-15-13-15-13\12-12-13-12--12-------------| 
B|-----------------------|----------------|----------------|--------------------------------13----------| 
G|-----------------------|----------------|----------------|-----------------------------------12----14-| 
D|-----------------------|----------------|----------------|--------------------------------------14----| 
A|-----------------------|----------------|----------------|--------------------------------------------| 
E|-----------------------|----------------|----------------|--------------------------------------------| 

     h                h                                                              
e|-12-13-12-------|-12-13-12------s---| 
B|----------13----|----------13-13\15-| 
G|-------------14-|-------------------| 
D|----------------|-------------------| 
A|----------------|-------------------| 
E|----------------|-------------------| 

   rake         h     h  p                                                                                    
e|-----22-20--19-20-19-20-19-|-19----------17-|------br--------------|----------------------------| 
B|---20----------------------|----20-17-------|-17-17--15------------|----15-----17-----20-----22-| 
G|--20-----------------------|----------19----|-----------17-14----s-|----------------------------| 
D|-20------------------------|----------------|-----------------15-\-|-15-----17-----19-----22----| 
A|---------------------------|----------------|----------------------|----------------------------| 
E|---------------------------|----------------|----------------------|----------------------------| 


00:24 
KEYBOARD BREAK 
*************** 

--------------------------- 
00:34 
e|-----|-----|-----|---| 
B|-----|-----|-----|---| 
G|-----|-----|-----|---| 
D|--s--|--s--|--s--|---| 
A|-5\7-|-5\7-|-5\7-|-5-| 
E|-3\5-|-3\5-|-3\5-|-3-|X2 


--------------------------- 
verse 1 
******** 
A 
Today I'll find my way 

'Cos It's OK 
     G 
Like never been before 
A 
Today I'll Touch The Sky 

Don't Ask Me why 
    G 
I'm Feelin' Fine Again 


--------------------------- 
Play This With verse 2 below 
Palm mute the right hand 
e|------------------------------------| 
B|--------------------------8--10-8---| 
G|---6-7-9-7-6-7-6----6-7-9---------9-| 
D|-7----------------7-----------------| 
A|------------------------------------| 
E|------------------------------------|X2 

verse 2 
******** 
A                                      G 
And now I'm feelin' like no Yesterdays 
A 
And all forgiven, smile has found my face 
     G 
It's no disgrace 


--------------------------- 
01:04 
Bm 
e|------------------------p---------|----------------s-| 
B|-----14-15-----14-15--15-14-------|-14-15-----14-15\-| 
G|-16--------16---------------14-16-|-------16---------| 
D|----------------------------------|------------------| 
A|----------------------------------|------------------| 
E|----------------------------------|------------------| 


--------------------------- 
01:15 - Play this with Chorus below 
e|------------------|--------------|-15-15--15-12-|-15-15--15----|---------------|-15-15--15-12-| 
B|-----13-13--13----|-13-13--13----|--------------|--------------|-13-13--13-----|--------------| 
G|-12------------12-|-----------12-|--------------|-----------12-|------------12-|--------------| 
D|------------------|--------------|--------------|--------------|---------------|--------------| 
A|------------------|--------------|--------------|--------------|---------------|--------------| 
E|------------------|--------------|--------------|--------------|---------------|--------------| 


e|-15-15--15----------------| 
B|-----------13--13-13~~~~~-| 
G|--------------------------| 
D|--------------------------| 
A|--------------------------| 
E|--------------------------| 

01:15 
Chorus 
******* 
C 
Never gonna be alone 
G 
This time I'm moving forward 
C 
I found the reason to believe 
F 
Can't You see 
C 
It's not written In the stars 
G 
You write It everyday now 
C 
That's the reason to believe 
F 
Can't You see 


--------------------------- 
Heavier Chords 
01:35 
e|-----|-----|-----|---| 
B|-----|-----|-----|---| 
G|-----|-----|-----|---| 
D|--s--|--s--|--s--|---| 
A|-5\7-|-5\7-|-5\7-|-5-| 
E|-3\5-|-3\5-|-3\5-|-3-|X2 

--------------------------- 
01:46 
verse 3 
******** 
A 
Today the sky is blue 

The grass is green 
    G 
I'm diggin' everything 
A 
Today is everyday 
                   G 
My loving eyes are shining 

No disguise 


--------------------------- 
Play This With verse 4 below 
Palm mute the right hand 
e|------------------------------------| 
B|--------------------------8--10-8---| 
G|---6-7-9-7-6-7-6----6-7-9---------9-| 
D|-7----------------7-----------------| 
A|------------------------------------| 
E|------------------------------------|X2 

verse 4 
******** 
A                                       G 
And now I'm feelin' like no Yesterdays 
A 
And all forgiven, smile has found my face 
     G 
It's no disgrace 


--------------------------- 
02:06 
Bm 
e|------------------------p---------|----------------s-| 
B|-----14-15-----14-15--15-14-------|-14-15-----14-15\-| 
G|-16--------16---------------14-16-|-------16---------| 
D|----------------------------------|------------------| 
A|----------------------------------|------------------| 
E|----------------------------------|------------------| 


--------------------------- 
Play this with Chorus below 
e|------------------|--------------|-15-15--15-12-|-15-15--15----|---------------|-15-15--15-12-| 
B|-----13-13--13----|-13-13--13----|--------------|--------------|-13-13--13-----|--------------| 
G|-12------------12-|-----------12-|--------------|-----------12-|------------12-|--------------| 
D|------------------|--------------|--------------|--------------|---------------|--------------| 
A|------------------|--------------|--------------|--------------|---------------|--------------| 
E|------------------|--------------|--------------|--------------|---------------|--------------| 


e|-15-15--15----------------| 
B|-----------13--13-13~~~~~-| 
G|--------------------------| 
D|--------------------------| 
A|--------------------------| 
E|--------------------------| 
02:16 
Chorus 
******* 
C 
Never gonna be alone 
G 
This time I'm moving forward 
C 
I found the reason to believe 
F 
Can't You see 
C 
It's not written In the stars 
G 
You write It everyday now 
C 
That's the reason to believe 
F 
Can't You see 


--------------------------- 
SYNTH - F C F Dm C F C F Dm and so on 
****** 


--------------------------- 
Heavier Guitar - A G A G Dm 
02:57 
e|-----|-----|-----|---| 
B|-----|-----|-----|---| 
G|-----|-----|-----|---| 
D|--s--|--s--|--s--|---| 
A|-5\7-|-5\7-|-5\7-|-5-| 
E|-3\5-|-3\5-|-3\5-|-3-|X2 


--------------------------- 
03:07 
Light Piano Keys 

--------------------------- 
GUITAR SOLO - If you listen carefully, This is 2 guitars through this solo, so i tried to do it as one 
************ 
03:17 

e|-12-12--12-12----------------------|-10-10--10-10----------------------|-8-8--8-8--------------------| 
B|---------------10-10-13-13---------|---------------10-10-10-10---------|-----------10-10-8-8---------| 
G|---------------------------10-10-9-|---------------------------10-10-9-|---------------------10-10-9-| 
D|-----------------------------------|-----------------------------------|-----------------------------| 
A|-----------------------------------|-----------------------------------|-----------------------------| 
E|-----------------------------------|-----------------------------------|-----------------------------| 

                                                                      p 
e|-7-7--7-7---------------|-12-12--12-12----------------|-10-10--10-10-5---------------| 
B|----------8--s----h-----|---------------10-10---------|----------------10-10---------| 
G|------------9\10-9-10-9-|---------------------10-10-9-|----------------------10-10-9-| 
D|------------------------|-----------------------------|------------------------------| 
A|------------------------|-----------------------------|------------------------------| 
E|------------------------|-----------------------------|------------------------------| 

                                           03:38                             s        s 
e|-8-8--8-8--------------|-7-7------8---s-|-----------15-------15-------15-15\17-17-17\15-15-15-| 
B|-----------8-8---------|-----8-10---10\-|-13--12-13----12-13----12-13-------------------------| 
G|---------------10-10-9-|----------------|-----------------------------------------------------| 
D|-----------------------|----------------|-----------------------------------------------------| 
A|-----------------------|----------------|-----------------------------------------------------| 
E|-----------------------|----------------|-----------------------------------------------------| 

                                                                       p 
e|-15-15-13--13-12--12-10----13--13-|-17-17-15--15-13--13-12-----15-15--12-| 
B|------------------------13--------|-------------------------13-----------| 
G|----------------------------------|--------------------------------------| 
D|----------------------------------|--------------------------------------| 
A|----------------------------------|--------------------------------------| 
E|----------------------------------|--------------------------------------| 

03:56                             s        s                                             s 
e|-------15--------15--------15-15\17-17-17\15-15-------|-------15--------15--------15-15\17-17-------| 
B|-12-13-----12-13-----12-13----------------------13-13-|-12-13-----12-13-----12-13-------------15-15-| 
G|------------------------------------------------------|---------------------------------------------| 
D|------------------------------------------------------|---------------------------------------------| 
A|------------------------------------------------------|---------------------------------------------| 
E|------------------------------------------------------|---------------------------------------------| 

04:06                                                                04:15       s         s 
e|-15-15-13--13-12--12-10----13--13-|-17-17-15--15-19-19-17-20-20~~~|-------15-15\17--17-17\19--19-20-| 
B|------------------------13--------|-------------------------------|-12-13---------------------------| 
G|----------------------------------|-------------------------------|---------------------------------| 
D|----------------------------------|-------------------------------|---------------------------------| 
A|----------------------------------|-------------------------------|---------------------------------| 
E|----------------------------------|-------------------------------|---------------------------------| 

04:20 
e|----17--17-17--17--15-15--------s-|-15-15--13-13--12-12---------p----b-----s-| 
B|-13-----------------------13-13-\-|---------------------15-15-15-13-15--15-\-| 
G|----------------------------------|------------------------------------------| 
D|----------------------------------|------------------------------------------| 
A|----------------------------------|------------------------------------------| 
E|----------------------------------|------------------------------------------| 

04:33 
e|------------------------------------------|-------15---------------h--p--p---------| 
B|-13-12-13-12------------------h--p--------|-12-13----13-12-13-15-13-15-13-12-------| 
G|-------------14-12-14-14-14-12-14-12-~~~~-|----------------------------------14-12-| 
D|------------------------------------------|----------------------------------------| 
A|------------------------------------------|----------------------------------------| 
E|------------------------------------------|----------------------------------------| 

04:40 
Bm 
e|------------------------p---------|----------------s-|----------------------p-------------------------s-| 
B|-----14-15-----14-15--15-14-------|-14-15-----14-15\-|----11-12-----11-12-12-11--------11-12-----11-12\-| 
G|-16--------16---------------14-16-|-------16---------|-13-------13--------------11-13--------13---------| 
D|----------------------------------|------------------|--------------------------------------------------| 
A|----------------------------------|------------------|--------------------------------------------------| 
E|----------------------------------|------------------|--------------------------------------------------| 


--------------------------- 
05:03 
OUTRO 
******      h     h  p       h     h  p       h     h  p       h     h  p  s     h 
e|-22-20--19-20-19-20-19-|-17-19-17-19-17-|-15-17-15-17-15-|-13-15-13-15-13\12-12-13-12--12-------------| 
B|-----------------------|----------------|----------------|--------------------------------13----------| 
G|-----------------------|----------------|----------------|-----------------------------------12----14-| 
D|-----------------------|----------------|----------------|--------------------------------------14----| 
A|-----------------------|----------------|----------------|--------------------------------------------| 
E|-----------------------|----------------|----------------|--------------------------------------------| 

     h                h                                                              
e|-12-13-12-------|-12-13-12------s---| 
B|----------13----|----------13-13\15-| 
G|-------------14-|-------------------| 
D|----------------|-------------------| 
A|----------------|-------------------| 
E|----------------|-------------------| 

   rake 
e|----22-20--19-20-19----------17-|--br---------------|----------------------------| 
B|---20---------------20-17-------|-17--15------------|----15-----17-----20-----22-| 
G|--20----------------------19----|--------17-14----s-|----------------------------| 
D|-20-----------------------------|--------------15-\-|-15-----17-----19-----22----| 
A|--------------------------------|-------------------|----------------------------| 
E|--------------------------------|-------------------|----------------------------| 




ENJOY....... 
		  

Full key step upFull key step up
Half key step upHalf key step up
Half key step downHalf key step down
Full key step downFull key step down
auto scroll beats size up size down change color hide chords drawings
tab show chords e-chords YouTube Clip e-chords hide all tabs e-chords go to top tab

share