Sasquatch

Let It In

Sasquatch

tabs

by  TARIKIKE

save to print version add songbook text version e-mail correct tuner
chordsukulelecavacokeyboardtabbassdrumsharmonicaflute Guitar Pro
close

there isn't a video lesson for this song

chords

Let It In

	  		
Tuning Db Ab Db Gb Bb eb 


Intro 

eb|------------------| 
Bb|------------------| 
Gb|------------------| 
Db|------------------| Let note ring 
Ab|--17~~~~~~~~~-----| with feedback 
Db|------------------| 

eb|------------------|------------------|------------------|------------------| 
Bb|------------------|------------------|------------------|------------------|  
Gb|------------------|------------------|------------------|------------------| Let all notes 
Db|------------------|------------------|------------------|------------------| ring with 
Ab|--17~~~~~~~~~-hbr-|-15~~~~~~~~~~~-~/-|-5~~~~~~~~~~~~hbr-|-3~~~~~~~~~~~~----| feedback 
Db|------------------|------------------|------------------|--------------12\-| 

eb|-----------------------------------------------| 
Bb|-----------------------------------------------| 
Gb|-----------------------------------------------| 
Db|-----------------------------------------------| x 4 
Ab|--5--5--3--------------------------------5--3--| 
Db|-----------0--3--5--0--6--5--0--3--5--0--------| 


Verse 

eb|------------------------------------|------------------------------------| 
Bb|------------------------------------|------------------------------------| 
Gb|------------------------------------|------------------------------------| 
Cb|----------12-12-12------------------|------------------------------------| 
Ab|--0---0---12-12-12-----------3-5-5--|------5qb--5-5-5-3~~~-------3-5-3---| 
Db|--0---0------------10~~~---0-3-5-5--|--0-----------------------0-3-5-3---| 

eb|------------------------------------|------------------------------------| 
Bb|------------------------------------|------------------------------------| 
Gb|------------------------------------|------------------------------------| 
Db|------------------------------------|------------------------------------| 
Ab|------5qb--5-5-5-3~~~--------3-5-5--|------5qb--5-5-5-3~~~-------3-5-3-0-| 
Db|--0------------------------0-3-5-5--|--0-----------------------0-3-5-3-0-| 

eb|------------------------------------|------------------------------------| 
Bb|------------------------------------|------------------------------------| 
Gb|------------------------------------|--5-5-5-5-5-------------------------| 
Db|------------------------------------|--5-5-5-5-5-------------------------| 
Ab|--5-5-5-5-5------3---5---6---5-3-0--|----------------5/6---5p0--3--------| 
Db|---------------0-3---5---6---5-3-0--|--------------0-5/6---5p0--3--------| 

eb|------------------------------------|------------------------------------| 
Bb|------------------------------------|------------------------------------| 
Gb|------------------------------------|--5-5-5-5-5-------------------------| 
Db|------------------------------------|--5-5-5-5-5-------------------------| 
Ab|--5-5-5-5-5------3--5-5-5/6--5-3-0--|----------------5/6---5p0--3--3-0h3-| 
Db|---------------0-3--5-5-5/6--5-3-0--|--------------0-5/6---5p0--3--3-0h3-| 


Chorus 

eb|----------------------------------|----------------------------------| 
Bb|----------------------------------|----------------------------------| 
Gb|------------------------------4h5-|----------------------------------| 
Db|--0---3---0---X-0---0-3---0-0-4h5-|-0---3---0---X-0---0-3h5-6p5-3h5--| x 2 
Ab|--0---3---0---X-0---0-3---0-0-----|-0---3---0---X-0---0-3h5-6p5-3h5--| 
Db|--0---3---0---X-0---0-3---0-0-----|-0---3---0---X-0---0-3h5-6p5-3h5--| 
         ^bend the 3's for a funkier sound!^ 


Verse 

eb|------------------------------------|------------------------------------| 
Bb|------------------------------------|------------------------------------| 
Gb|------------------------------------|------------------------------------| 
Cb|------12---12-12-12-----------------|------------------------------------| 
Ab|--0---12---12-12-12----------3-5-5--|------5qb--5-5-5-3~~~-------3-5-3---| 
Db|--0-----------------10~~~--0-3-5-5--|--0-----------------------0-3-5-3---| 

eb|------------------------------------|------------------------------------| 
Bb|------------------------------------|------------------------------------| 
Gb|------------------------------------|------------------------------------| 
Db|------------------------------------|------------------------------------| 
Ab|------5qb--5-5-5-3~~~--------3-5-5--|------5qb--5-5-5-3~~~-------3-5-3-0-| 
Db|--0------------------------0-3-5-5--|--0-----------------------0-3-5-3-0-| 

eb|------------------------------------|------------------------------------| 
Bb|------------------------------------|------------------------------------| 
Gb|------------------------------------|--5-5-5-5-5-------------------------| 
Db|------------------------------------|--5-5-5-5-5-------------------------| 
Ab|--5-5-5-5-5------3---5--5/6--5-3p0--|----------------5/6---5p0--3--3-3-3-| 
Db|---------------0-3---5--5/6--5-3p0--|--------------0-5/6---5p0--3--3-3-3-| 

eb|------------------------------------|------------------------------------| 
Bb|------------------------------------|------------------------------------| 
Gb|------------------------------------|--5-5-5-5-5-------------------------| 
Db|------------------------------------|--5-5-5-5-5-------------------------| 
Ab|--5-5-5-5-5------3---5--5/6--5-3-0--|----------------5/6---5p0--3--3-3-3-| 
Db|---------------0-3---5--5/6--5-3-0--|--------------0-5/6---5p0--3--3-3-3-| 


Chorus 

eb|----------------------------------|----------------------------------| 
Bb|----------------------------------|----------------------------------| 
Gb|------------------------------4h5-|----------------------------------| 
Db|--0---3---0---X-0---0-3---0-0-4h5-|-0---3---0---X-0---0-3h5-6p5-3h5--| x 2 
Ab|--0---3---0---X-0---0-3---0-0-----|-0---3---0---X-0---0-3h5-6p5-3h5--| 
Db|--0---3---0---X-0---0-3---0-0-----|-0---3---0---X-0---0-3h5-6p5-3h5--| 


Bridge 

eb|----------------------------------|----------------------------------| 
Bb|----------------------------------|----------------------------------| 
Gb|----------------------------------|----------------------------------| 
Db|--7-7-7-7-7\----------------------|--5-5-5-5-5\----------------------| 
Ab|--7-7-7-7-7\----------------------|--5-5-5-5-5\----------------------| 
Db|--7-7-7-7-7\----------------------|--5-5-5-5-5\----------------------| 

eb|----------------------------------|----------------------------------| 
Bb|----------------------------------|----------------------------------| 
Gb|----------------------------------|----------------------------------| 
Db|--7-7-7-7-7\----------------------|--5-5-5-5-5-0-3-------------------| 
Ab|--7-7-7-7-7\----------------------|--5-5-5-5-5-0-3-------------------| 
Db|--7-7-7-7-7\----------------------|--5-5-5-5-5-0-3-------------------| 


Solo Rhythm 

eb|------------------------------------|------------------------------------| 
Bb|------------------------------------|------------------------------------| 
Gb|------------------------------------|------------------------------------| Play this if 
Cb|----------12-12-12------------------|------------------------------------| you find the 
Ab|--0---0---12-12-12-----------3-5-5--|------5qb--5-5-5-3~~~-------3-5-3---| solo too hard 
Db|--0---0------------10~~~---0-3-5-5--|--0-----------------------0-3-5-3---| 

eb|------------------------------------|------------------------------------| 
Bb|------------------------------------|------------------------------------| 
Gb|------------------------------------|------------------------------------| 
Db|------------------------------------|------------------------------------| 
Ab|------5qb--5-5-5-3~~~--------3-5-5--|------5qb--5-5-5-3~~~-------3-5-3---| 
Db|--0------------------------0-3-5-5--|--0-----------------------0-3-5-3---| 

eb|------------------------------------|------------------------------------| 
Bb|------------------------------------|------------------------------------| 
Gb|------------------------------------|------------------------------------| 
Db|--7---7-7-7\------------------------|--5-5-5-5-5p0-3---------------------| 
Ab|--7---7-7-7\------------------------|--5-5-5-5-5p0-3---------------------| 
Db|--7---7-7-7\------------------------|--5-5-5-5-5p0-3---------------------| 


Solo Lead 

eb|-----------------------10p8----10---|------------------------------------| 
Bb|--9hb~~~~~-----------------h10-9hbr-|-9hbr--9hbrp8-----------------------| 
Gb|------------------------------------|--------------7--10~~~~-------------| 
Db|------------------------------------|------------------------------------| 
Ab|------------------------------------|------------------------------------| 
Db|------------------------------------|------------------------------------| 

eb|-------------------------------------------------------------------| 
Bb|-----------------------------15p13---------------------------------| 
Gb|--------------10----10-12hb-------h14--14\12p10--12hbrp10-12hbrp10-| 
Db|--------10-12----12------------------------------------------------| 
Ab|--10/12------------------------------------------------------------| 
Db|-------------------------------------------------------------------| 

eb|-----------8--8-----------------------| 
Bb|--------------8hb--9~~~--8p6-8--6~~\--| 
Gb|-10~~~~-10----------------------------| 
Db|--------------------------------------| 
Ab|--------------------------------------| 
Db|--------------------------------------| 

eb|-----------------------------15-------------------------------17qb~~~~~--| 
Bb|-------13----13-15-13-15fb~~~~~~15-15brp13-----13-15-13~~~~~~------------| 
Gb|--/14-----14-------------------------------14----------------------------| 
Db|-------------------------------------------------------------------------| 
Ab|-------------------------------------------------------------------------| 
Db|-------------------------------------------------------------------------| 
                           Hold Bend 


Chorus 

eb|----------------------------------|----------------------------------| 
Bb|----------------------------------|----------------------------------| 
Gb|------------------------------4h5-|----------------------------------| 
Db|--0---3---0---X-0---0-3---0-0-4h5-|-0---3---0---X-0---0-3h5-6p5-3h5--| x 4 
Ab|--0---3---0---X-0---0-3---0-0-----|-0---3---0---X-0---0-3h5-6p5-3h5--| 
Db|--0---3---0---X-0---0-3---0-0-----|-0---3---0---X-0---0-3h5-6p5-3h5--| 


Outro 

eb|-----------------------------------------------| 
Bb|-----------------------------------------------| 
Gb|-----------------------------------------------| 
Db|-----------------------------------------------| x 8 
Ab|--5--5--3--------------------------------5--3--| 
Db|-----------0--3--5--0--6--5--0--3--5--0--------| 

eb|-----------------------------------------------| 
Bb|-----------------------------------------------| 
Gb|-----------------------------------------------| 
Db|-----------------------------------------------| 
Ab|--0--0-----------------------------X-----------| 
Db|--0--0-------------------------------------X---| 
        Let both notes ring then mute Ab then Db 



************************************ 

| h  Hammer-on 
| p  Pull-off 
| b  Bend 
| /  Slide up 
| \  Slide down 
| ~  Vibrato  

************************************ 
		  

Full key step upFull key step up
Half key step upHalf key step up
Half key step downHalf key step down
Full key step downFull key step down
hide glossary

See also:

tabs Deep Purple - Highway Star tabs Deep Purple - Smoke On The Water (Easy Intro) tabs Deep Purple - Space Truckin tabs Deep Purple - Rat Bat Blues tabs Deep Purple - Smoke On Water (ver. 2) tabs Deep Purple - Lazy
e-chords

Other versions:

tabs Sasquatch - Let It In
auto scroll beats size up size down change color hide chords drawings
tab show chords e-chords YouTube Clip e-chords hide all tabs e-chords go to top tab

share